ISO-10303-21;
HEADER;
/* Generated by software containing ST-Developer
 * from STEP Tools, Inc. (www.steptools.com) 
 */

FILE_DESCRIPTION(
/* description */ (''),
/* implementation_level */ '2;1');

FILE_NAME(
/* name */ 'c:\\dwg_dest\\3d_SM1X1745P.stp',
/* time_stamp */ '2017-06-30T10:56:43+02:00',
/* author */ ('Andrzej'),
/* organization */ (''),
/* preprocessor_version */ 'ST-DEVELOPER v15.5',
/* originating_system */ 'AutoCAD Mechanical',
/* authorisation */ '');

FILE_SCHEMA (('AUTOMOTIVE_DESIGN { 1 0 10303 214 3 1 1 }'));
ENDSEC;

DATA;
#10=MECHANICAL_DESIGN_GEOMETRIC_PRESENTATION_REPRESENTATION('',(#17),#597);
#11=DIMENSIONAL_EXPONENTS(0.,0.,0.,0.,0.,0.,0.);
#12=(
CONVERSION_BASED_UNIT('degree',#13)
NAMED_UNIT(#11)
PLANE_ANGLE_UNIT()
);
#13=PLANE_ANGLE_MEASURE_WITH_UNIT(PLANE_ANGLE_MEASURE(0.01745329252),#600);
#14=PRESENTATION_LAYER_ASSIGNMENT('0','',(#353));
#15=SHAPE_REPRESENTATION_RELATIONSHIP('SRR','None',#603,#16);
#16=ADVANCED_BREP_SHAPE_REPRESENTATION($,(#353),#596);
#17=STYLED_ITEM($,(#612),#353);
#18=FACE_BOUND($,#71,.T.);
#19=CIRCLE($,#357,4.20000000000016);
#20=CIRCLE($,#358,4.20000000000016);
#21=CIRCLE($,#361,4.20000000000016);
#22=CIRCLE($,#362,4.20000000000016);
#23=CIRCLE($,#365,4.20000000000016);
#24=CIRCLE($,#366,4.20000000000016);
#25=CIRCLE($,#369,4.20000000000016);
#26=CIRCLE($,#370,4.20000000000016);
#27=CIRCLE($,#372,5.49999999999989);
#28=CIRCLE($,#373,5.50000000000011);
#29=CIRCLE($,#374,5.50000000000011);
#30=CIRCLE($,#375,5.4999999999999);
#31=CIRCLE($,#377,5.50000000000011);
#32=CIRCLE($,#380,5.50000000000011);
#33=CIRCLE($,#384,5.49999999999989);
#34=CIRCLE($,#387,5.4999999999999);
#35=CYLINDRICAL_SURFACE($,#356,4.20000000000016);
#36=CYLINDRICAL_SURFACE($,#360,4.20000000000016);
#37=CYLINDRICAL_SURFACE($,#364,4.20000000000016);
#38=CYLINDRICAL_SURFACE($,#368,4.20000000000016);
#39=CYLINDRICAL_SURFACE($,#376,5.50000000000011);
#40=CYLINDRICAL_SURFACE($,#379,5.50000000000011);
#41=CYLINDRICAL_SURFACE($,#383,5.49999999999989);
#42=CYLINDRICAL_SURFACE($,#386,5.4999999999999);
#43=FACE_OUTER_BOUND($,#62,.T.);
#44=FACE_OUTER_BOUND($,#63,.T.);
#45=FACE_OUTER_BOUND($,#64,.T.);
#46=FACE_OUTER_BOUND($,#65,.T.);
#47=FACE_OUTER_BOUND($,#66,.T.);
#48=FACE_OUTER_BOUND($,#67,.T.);
#49=FACE_OUTER_BOUND($,#68,.T.);
#50=FACE_OUTER_BOUND($,#69,.T.);
#51=FACE_OUTER_BOUND($,#70,.T.);
#52=FACE_OUTER_BOUND($,#72,.T.);
#53=FACE_OUTER_BOUND($,#73,.T.);
#54=FACE_OUTER_BOUND($,#74,.T.);
#55=FACE_OUTER_BOUND($,#75,.T.);
#56=FACE_OUTER_BOUND($,#76,.T.);
#57=FACE_OUTER_BOUND($,#77,.T.);
#58=FACE_OUTER_BOUND($,#78,.T.);
#59=FACE_OUTER_BOUND($,#79,.T.);
#60=FACE_OUTER_BOUND($,#80,.T.);
#61=FACE_OUTER_BOUND($,#81,.T.);
#62=EDGE_LOOP($,(#226,#227,#228,#229));
#63=EDGE_LOOP($,(#230,#231,#232,#233));
#64=EDGE_LOOP($,(#234,#235,#236,#237));
#65=EDGE_LOOP($,(#238,#239,#240,#241));
#66=EDGE_LOOP($,(#242,#243,#244,#245));
#67=EDGE_LOOP($,(#246,#247,#248,#249));
#68=EDGE_LOOP($,(#250,#251,#252,#253));
#69=EDGE_LOOP($,(#254,#255,#256,#257));
#70=EDGE_LOOP($,(#258,#259,#260,#261,#262,#263,#264,#265));
#71=EDGE_LOOP($,(#266,#267,#268,#269,#270,#271,#272,#273));
#72=EDGE_LOOP($,(#274,#275,#276,#277));
#73=EDGE_LOOP($,(#278,#279,#280,#281));
#74=EDGE_LOOP($,(#282,#283,#284,#285));
#75=EDGE_LOOP($,(#286,#287,#288,#289));
#76=EDGE_LOOP($,(#290,#291,#292,#293));
#77=EDGE_LOOP($,(#294,#295,#296,#297));
#78=EDGE_LOOP($,(#298,#299,#300,#301));
#79=EDGE_LOOP($,(#302,#303,#304,#305));
#80=EDGE_LOOP($,(#306,#307,#308,#309,#310,#311,#312,#313));
#81=EDGE_LOOP($,(#314,#315,#316,#317,#318,#319,#320,#321));
#82=LINE($,#498,#114);
#83=LINE($,#500,#115);
#84=LINE($,#502,#116);
#85=LINE($,#503,#117);
#86=LINE($,#509,#118);
#87=LINE($,#512,#119);
#88=LINE($,#514,#120);
#89=LINE($,#515,#121);
#90=LINE($,#521,#122);
#91=LINE($,#524,#123);
#92=LINE($,#526,#124);
#93=LINE($,#527,#125);
#94=LINE($,#533,#126);
#95=LINE($,#536,#127);
#96=LINE($,#538,#128);
#97=LINE($,#539,#129);
#98=LINE($,#548,#130);
#99=LINE($,#552,#131);
#100=LINE($,#556,#132);
#101=LINE($,#559,#133);
#102=LINE($,#562,#134);
#103=LINE($,#565,#135);
#104=LINE($,#568,#136);
#105=LINE($,#569,#137);
#106=LINE($,#572,#138);
#107=LINE($,#576,#139);
#108=LINE($,#577,#140);
#109=LINE($,#580,#141);
#110=LINE($,#582,#142);
#111=LINE($,#583,#143);
#112=LINE($,#588,#144);
#113=LINE($,#589,#145);
#114=VECTOR($,#394,61.5999999999999);
#115=VECTOR($,#395,5.);
#116=VECTOR($,#396,61.5999999999999);
#117=VECTOR($,#397,5.);
#118=VECTOR($,#404,5.);
#119=VECTOR($,#407,39.4000000000001);
#120=VECTOR($,#408,39.4000000000001);
#121=VECTOR($,#409,5.);
#122=VECTOR($,#416,5.);
#123=VECTOR($,#419,61.5999999999999);
#124=VECTOR($,#420,61.5999999999999);
#125=VECTOR($,#421,5.);
#126=VECTOR($,#428,5.);
#127=VECTOR($,#431,39.4000000000001);
#128=VECTOR($,#432,39.4000000000001);
#129=VECTOR($,#433,5.);
#130=VECTOR($,#444,16.8002717970965);
#131=VECTOR($,#447,55.);
#132=VECTOR($,#450,16.7997266881391);
#133=VECTOR($,#453,55.0000000027013);
#134=VECTOR($,#456,0.5);
#135=VECTOR($,#459,0.5);
#136=VECTOR($,#462,0.5);
#137=VECTOR($,#463,55.);
#138=VECTOR($,#466,0.5);
#139=VECTOR($,#471,0.5);
#140=VECTOR($,#472,16.8002717970966);
#141=VECTOR($,#475,0.5);
#142=VECTOR($,#476,55.0000000027013);
#143=VECTOR($,#477,0.5);
#144=VECTOR($,#484,16.7997266881391);
#145=VECTOR($,#485,0.5);
#146=VERTEX_POINT($,#496);
#147=VERTEX_POINT($,#497);
#148=VERTEX_POINT($,#499);
#149=VERTEX_POINT($,#501);
#150=VERTEX_POINT($,#505);
#151=VERTEX_POINT($,#507);
#152=VERTEX_POINT($,#511);
#153=VERTEX_POINT($,#513);
#154=VERTEX_POINT($,#517);
#155=VERTEX_POINT($,#519);
#156=VERTEX_POINT($,#523);
#157=VERTEX_POINT($,#525);
#158=VERTEX_POINT($,#529);
#159=VERTEX_POINT($,#531);
#160=VERTEX_POINT($,#535);
#161=VERTEX_POINT($,#537);
#162=VERTEX_POINT($,#544);
#163=VERTEX_POINT($,#545);
#164=VERTEX_POINT($,#547);
#165=VERTEX_POINT($,#549);
#166=VERTEX_POINT($,#551);
#167=VERTEX_POINT($,#553);
#168=VERTEX_POINT($,#555);
#169=VERTEX_POINT($,#557);
#170=VERTEX_POINT($,#561);
#171=VERTEX_POINT($,#563);
#172=VERTEX_POINT($,#567);
#173=VERTEX_POINT($,#571);
#174=VERTEX_POINT($,#575);
#175=VERTEX_POINT($,#579);
#176=VERTEX_POINT($,#581);
#177=VERTEX_POINT($,#587);
#178=EDGE_CURVE($,#146,#147,#82,.T.);
#179=EDGE_CURVE($,#147,#148,#83,.T.);
#180=EDGE_CURVE($,#149,#148,#84,.T.);
#181=EDGE_CURVE($,#146,#149,#85,.T.);
#182=EDGE_CURVE($,#150,#146,#19,.T.);
#183=EDGE_CURVE($,#151,#149,#20,.T.);
#184=EDGE_CURVE($,#150,#151,#86,.T.);
#185=EDGE_CURVE($,#152,#150,#87,.T.);
#186=EDGE_CURVE($,#153,#151,#88,.T.);
#187=EDGE_CURVE($,#152,#153,#89,.T.);
#188=EDGE_CURVE($,#154,#152,#21,.T.);
#189=EDGE_CURVE($,#155,#153,#22,.T.);
#190=EDGE_CURVE($,#154,#155,#90,.T.);
#191=EDGE_CURVE($,#156,#154,#91,.T.);
#192=EDGE_CURVE($,#157,#155,#92,.T.);
#193=EDGE_CURVE($,#156,#157,#93,.T.);
#194=EDGE_CURVE($,#158,#156,#23,.T.);
#195=EDGE_CURVE($,#159,#157,#24,.T.);
#196=EDGE_CURVE($,#158,#159,#94,.T.);
#197=EDGE_CURVE($,#160,#158,#95,.T.);
#198=EDGE_CURVE($,#161,#159,#96,.T.);
#199=EDGE_CURVE($,#160,#161,#97,.T.);
#200=EDGE_CURVE($,#147,#160,#25,.T.);
#201=EDGE_CURVE($,#148,#161,#26,.T.);
#202=EDGE_CURVE($,#162,#163,#27,.T.);
#203=EDGE_CURVE($,#164,#162,#98,.T.);
#204=EDGE_CURVE($,#165,#164,#28,.T.);
#205=EDGE_CURVE($,#166,#165,#99,.T.);
#206=EDGE_CURVE($,#167,#166,#29,.T.);
#207=EDGE_CURVE($,#168,#167,#100,.T.);
#208=EDGE_CURVE($,#169,#168,#30,.T.);
#209=EDGE_CURVE($,#163,#169,#101,.T.);
#210=EDGE_CURVE($,#166,#170,#102,.T.);
#211=EDGE_CURVE($,#171,#170,#31,.T.);
#212=EDGE_CURVE($,#167,#171,#103,.T.);
#213=EDGE_CURVE($,#165,#172,#104,.T.);
#214=EDGE_CURVE($,#170,#172,#105,.T.);
#215=EDGE_CURVE($,#164,#173,#106,.T.);
#216=EDGE_CURVE($,#172,#173,#32,.T.);
#217=EDGE_CURVE($,#162,#174,#107,.T.);
#218=EDGE_CURVE($,#173,#174,#108,.T.);
#219=EDGE_CURVE($,#169,#175,#109,.T.);
#220=EDGE_CURVE($,#176,#175,#110,.T.);
#221=EDGE_CURVE($,#163,#176,#111,.T.);
#222=EDGE_CURVE($,#174,#176,#33,.T.);
#223=EDGE_CURVE($,#177,#171,#112,.T.);
#224=EDGE_CURVE($,#168,#177,#113,.T.);
#225=EDGE_CURVE($,#175,#177,#34,.T.);
#226=ORIENTED_EDGE($,*,*,#178,.T.);
#227=ORIENTED_EDGE($,*,*,#179,.T.);
#228=ORIENTED_EDGE($,*,*,#180,.F.);
#229=ORIENTED_EDGE($,*,*,#181,.F.);
#230=ORIENTED_EDGE($,*,*,#182,.T.);
#231=ORIENTED_EDGE($,*,*,#181,.T.);
#232=ORIENTED_EDGE($,*,*,#183,.F.);
#233=ORIENTED_EDGE($,*,*,#184,.F.);
#234=ORIENTED_EDGE($,*,*,#185,.T.);
#235=ORIENTED_EDGE($,*,*,#184,.T.);
#236=ORIENTED_EDGE($,*,*,#186,.F.);
#237=ORIENTED_EDGE($,*,*,#187,.F.);
#238=ORIENTED_EDGE($,*,*,#188,.T.);
#239=ORIENTED_EDGE($,*,*,#187,.T.);
#240=ORIENTED_EDGE($,*,*,#189,.F.);
#241=ORIENTED_EDGE($,*,*,#190,.F.);
#242=ORIENTED_EDGE($,*,*,#191,.T.);
#243=ORIENTED_EDGE($,*,*,#190,.T.);
#244=ORIENTED_EDGE($,*,*,#192,.F.);
#245=ORIENTED_EDGE($,*,*,#193,.F.);
#246=ORIENTED_EDGE($,*,*,#194,.T.);
#247=ORIENTED_EDGE($,*,*,#193,.T.);
#248=ORIENTED_EDGE($,*,*,#195,.F.);
#249=ORIENTED_EDGE($,*,*,#196,.F.);
#250=ORIENTED_EDGE($,*,*,#197,.T.);
#251=ORIENTED_EDGE($,*,*,#196,.T.);
#252=ORIENTED_EDGE($,*,*,#198,.F.);
#253=ORIENTED_EDGE($,*,*,#199,.F.);
#254=ORIENTED_EDGE($,*,*,#200,.T.);
#255=ORIENTED_EDGE($,*,*,#199,.T.);
#256=ORIENTED_EDGE($,*,*,#201,.F.);
#257=ORIENTED_EDGE($,*,*,#179,.F.);
#258=ORIENTED_EDGE($,*,*,#201,.T.);
#259=ORIENTED_EDGE($,*,*,#198,.T.);
#260=ORIENTED_EDGE($,*,*,#195,.T.);
#261=ORIENTED_EDGE($,*,*,#192,.T.);
#262=ORIENTED_EDGE($,*,*,#189,.T.);
#263=ORIENTED_EDGE($,*,*,#186,.T.);
#264=ORIENTED_EDGE($,*,*,#183,.T.);
#265=ORIENTED_EDGE($,*,*,#180,.T.);
#266=ORIENTED_EDGE($,*,*,#202,.F.);
#267=ORIENTED_EDGE($,*,*,#203,.F.);
#268=ORIENTED_EDGE($,*,*,#204,.F.);
#269=ORIENTED_EDGE($,*,*,#205,.F.);
#270=ORIENTED_EDGE($,*,*,#206,.F.);
#271=ORIENTED_EDGE($,*,*,#207,.F.);
#272=ORIENTED_EDGE($,*,*,#208,.F.);
#273=ORIENTED_EDGE($,*,*,#209,.F.);
#274=ORIENTED_EDGE($,*,*,#206,.T.);
#275=ORIENTED_EDGE($,*,*,#210,.T.);
#276=ORIENTED_EDGE($,*,*,#211,.F.);
#277=ORIENTED_EDGE($,*,*,#212,.F.);
#278=ORIENTED_EDGE($,*,*,#205,.T.);
#279=ORIENTED_EDGE($,*,*,#213,.T.);
#280=ORIENTED_EDGE($,*,*,#214,.F.);
#281=ORIENTED_EDGE($,*,*,#210,.F.);
#282=ORIENTED_EDGE($,*,*,#204,.T.);
#283=ORIENTED_EDGE($,*,*,#215,.T.);
#284=ORIENTED_EDGE($,*,*,#216,.F.);
#285=ORIENTED_EDGE($,*,*,#213,.F.);
#286=ORIENTED_EDGE($,*,*,#203,.T.);
#287=ORIENTED_EDGE($,*,*,#217,.T.);
#288=ORIENTED_EDGE($,*,*,#218,.F.);
#289=ORIENTED_EDGE($,*,*,#215,.F.);
#290=ORIENTED_EDGE($,*,*,#209,.T.);
#291=ORIENTED_EDGE($,*,*,#219,.T.);
#292=ORIENTED_EDGE($,*,*,#220,.F.);
#293=ORIENTED_EDGE($,*,*,#221,.F.);
#294=ORIENTED_EDGE($,*,*,#202,.T.);
#295=ORIENTED_EDGE($,*,*,#221,.T.);
#296=ORIENTED_EDGE($,*,*,#222,.F.);
#297=ORIENTED_EDGE($,*,*,#217,.F.);
#298=ORIENTED_EDGE($,*,*,#207,.T.);
#299=ORIENTED_EDGE($,*,*,#212,.T.);
#300=ORIENTED_EDGE($,*,*,#223,.F.);
#301=ORIENTED_EDGE($,*,*,#224,.F.);
#302=ORIENTED_EDGE($,*,*,#208,.T.);
#303=ORIENTED_EDGE($,*,*,#224,.T.);
#304=ORIENTED_EDGE($,*,*,#225,.F.);
#305=ORIENTED_EDGE($,*,*,#219,.F.);
#306=ORIENTED_EDGE($,*,*,#225,.T.);
#307=ORIENTED_EDGE($,*,*,#223,.T.);
#308=ORIENTED_EDGE($,*,*,#211,.T.);
#309=ORIENTED_EDGE($,*,*,#214,.T.);
#310=ORIENTED_EDGE($,*,*,#216,.T.);
#311=ORIENTED_EDGE($,*,*,#218,.T.);
#312=ORIENTED_EDGE($,*,*,#222,.T.);
#313=ORIENTED_EDGE($,*,*,#220,.T.);
#314=ORIENTED_EDGE($,*,*,#200,.F.);
#315=ORIENTED_EDGE($,*,*,#178,.F.);
#316=ORIENTED_EDGE($,*,*,#182,.F.);
#317=ORIENTED_EDGE($,*,*,#185,.F.);
#318=ORIENTED_EDGE($,*,*,#188,.F.);
#319=ORIENTED_EDGE($,*,*,#191,.F.);
#320=ORIENTED_EDGE($,*,*,#194,.F.);
#321=ORIENTED_EDGE($,*,*,#197,.F.);
#322=PLANE($,#355);
#323=PLANE($,#359);
#324=PLANE($,#363);
#325=PLANE($,#367);
#326=PLANE($,#371);
#327=PLANE($,#378);
#328=PLANE($,#381);
#329=PLANE($,#382);
#330=PLANE($,#385);
#331=PLANE($,#388);
#332=PLANE($,#389);
#333=ADVANCED_FACE($,(#43),#322,.T.);
#334=ADVANCED_FACE($,(#44),#35,.T.);
#335=ADVANCED_FACE($,(#45),#323,.T.);
#336=ADVANCED_FACE($,(#46),#36,.T.);
#337=ADVANCED_FACE($,(#47),#324,.T.);
#338=ADVANCED_FACE($,(#48),#37,.T.);
#339=ADVANCED_FACE($,(#49),#325,.T.);
#340=ADVANCED_FACE($,(#50),#38,.T.);
#341=ADVANCED_FACE($,(#51,#18),#326,.T.);
#342=ADVANCED_FACE($,(#52),#39,.T.);
#343=ADVANCED_FACE($,(#53),#327,.T.);
#344=ADVANCED_FACE($,(#54),#40,.T.);
#345=ADVANCED_FACE($,(#55),#328,.T.);
#346=ADVANCED_FACE($,(#56),#329,.T.);
#347=ADVANCED_FACE($,(#57),#41,.T.);
#348=ADVANCED_FACE($,(#58),#330,.T.);
#349=ADVANCED_FACE($,(#59),#42,.T.);
#350=ADVANCED_FACE($,(#60),#331,.T.);
#351=ADVANCED_FACE($,(#61),#332,.F.);
#352=CLOSED_SHELL($,(#333,#334,#335,#336,#337,#338,#339,#340,#341,#342,
#343,#344,#345,#346,#347,#348,#349,#350,#351));
#353=MANIFOLD_SOLID_BREP('15B5',#352);
#354=AXIS2_PLACEMENT_3D('placement',#494,#390,#391);
#355=AXIS2_PLACEMENT_3D($,#495,#392,#393);
#356=AXIS2_PLACEMENT_3D($,#504,#398,#399);
#357=AXIS2_PLACEMENT_3D($,#506,#400,#401);
#358=AXIS2_PLACEMENT_3D($,#508,#402,#403);
#359=AXIS2_PLACEMENT_3D($,#510,#405,#406);
#360=AXIS2_PLACEMENT_3D($,#516,#410,#411);
#361=AXIS2_PLACEMENT_3D($,#518,#412,#413);
#362=AXIS2_PLACEMENT_3D($,#520,#414,#415);
#363=AXIS2_PLACEMENT_3D($,#522,#417,#418);
#364=AXIS2_PLACEMENT_3D($,#528,#422,#423);
#365=AXIS2_PLACEMENT_3D($,#530,#424,#425);
#366=AXIS2_PLACEMENT_3D($,#532,#426,#427);
#367=AXIS2_PLACEMENT_3D($,#534,#429,#430);
#368=AXIS2_PLACEMENT_3D($,#540,#434,#435);
#369=AXIS2_PLACEMENT_3D($,#541,#436,#437);
#370=AXIS2_PLACEMENT_3D($,#542,#438,#439);
#371=AXIS2_PLACEMENT_3D($,#543,#440,#441);
#372=AXIS2_PLACEMENT_3D($,#546,#442,#443);
#373=AXIS2_PLACEMENT_3D($,#550,#445,#446);
#374=AXIS2_PLACEMENT_3D($,#554,#448,#449);
#375=AXIS2_PLACEMENT_3D($,#558,#451,#452);
#376=AXIS2_PLACEMENT_3D($,#560,#454,#455);
#377=AXIS2_PLACEMENT_3D($,#564,#457,#458);
#378=AXIS2_PLACEMENT_3D($,#566,#460,#461);
#379=AXIS2_PLACEMENT_3D($,#570,#464,#465);
#380=AXIS2_PLACEMENT_3D($,#573,#467,#468);
#381=AXIS2_PLACEMENT_3D($,#574,#469,#470);
#382=AXIS2_PLACEMENT_3D($,#578,#473,#474);
#383=AXIS2_PLACEMENT_3D($,#584,#478,#479);
#384=AXIS2_PLACEMENT_3D($,#585,#480,#481);
#385=AXIS2_PLACEMENT_3D($,#586,#482,#483);
#386=AXIS2_PLACEMENT_3D($,#590,#486,#487);
#387=AXIS2_PLACEMENT_3D($,#591,#488,#489);
#388=AXIS2_PLACEMENT_3D($,#592,#490,#491);
#389=AXIS2_PLACEMENT_3D($,#593,#492,#493);
#390=DIRECTION('axis',(0.,0.,1.));
#391=DIRECTION('refdir',(1.,0.,0.));
#392=DIRECTION('center_axis',(0.,1.,0.));
#393=DIRECTION('ref_axis',(-1.,0.,0.));
#394=DIRECTION($,(-1.,0.,0.));
#395=DIRECTION($,(0.,0.,1.));
#396=DIRECTION($,(-1.,0.,0.));
#397=DIRECTION($,(0.,0.,1.));
#398=DIRECTION('center_axis',(0.,0.,1.));
#399=DIRECTION('ref_axis',(1.,2.70682946956218E-14,0.));
#400=DIRECTION('center_axis',(0.,0.,1.));
#401=DIRECTION('ref_axis',(1.,2.70682946956218E-14,0.));
#402=DIRECTION('center_axis',(0.,0.,1.));
#403=DIRECTION('ref_axis',(1.,2.70682946956218E-14,0.));
#404=DIRECTION($,(0.,0.,1.));
#405=DIRECTION('center_axis',(1.,0.,0.));
#406=DIRECTION('ref_axis',(0.,1.,0.));
#407=DIRECTION($,(0.,1.,0.));
#408=DIRECTION($,(0.,1.,0.));
#409=DIRECTION($,(0.,0.,1.));
#410=DIRECTION('center_axis',(0.,0.,1.));
#411=DIRECTION('ref_axis',(2.70682946956218E-14,-1.,0.));
#412=DIRECTION('center_axis',(0.,0.,1.));
#413=DIRECTION('ref_axis',(2.70682946956218E-14,-1.,0.));
#414=DIRECTION('center_axis',(0.,0.,1.));
#415=DIRECTION('ref_axis',(2.70682946956218E-14,-1.,0.));
#416=DIRECTION($,(0.,0.,1.));
#417=DIRECTION('center_axis',(0.,-1.,0.));
#418=DIRECTION('ref_axis',(1.,0.,0.));
#419=DIRECTION($,(1.,0.,0.));
#420=DIRECTION($,(1.,0.,0.));
#421=DIRECTION($,(0.,0.,1.));
#422=DIRECTION('center_axis',(0.,0.,1.));
#423=DIRECTION('ref_axis',(-1.,-2.70682946956218E-14,0.));
#424=DIRECTION('center_axis',(0.,0.,1.));
#425=DIRECTION('ref_axis',(-1.,-2.70682946956218E-14,0.));
#426=DIRECTION('center_axis',(0.,0.,1.));
#427=DIRECTION('ref_axis',(-1.,-2.70682946956218E-14,0.));
#428=DIRECTION($,(0.,0.,1.));
#429=DIRECTION('center_axis',(-1.,0.,0.));
#430=DIRECTION('ref_axis',(0.,-1.,0.));
#431=DIRECTION($,(0.,-1.,0.));
#432=DIRECTION($,(0.,-1.,0.));
#433=DIRECTION($,(0.,0.,1.));
#434=DIRECTION('center_axis',(0.,0.,1.));
#435=DIRECTION('ref_axis',(-2.70682946956218E-14,1.,0.));
#436=DIRECTION('center_axis',(0.,0.,1.));
#437=DIRECTION('ref_axis',(-2.70682946956218E-14,1.,0.));
#438=DIRECTION('center_axis',(0.,0.,1.));
#439=DIRECTION('ref_axis',(-2.70682946956218E-14,1.,0.));
#440=DIRECTION('center_axis',(0.,0.,1.));
#441=DIRECTION('ref_axis',(1.,0.,0.));
#442=DIRECTION('center_axis',(0.,0.,1.));
#443=DIRECTION('ref_axis',(1.,0.,0.));
#444=DIRECTION($,(-6.76696419526162E-15,1.,0.));
#445=DIRECTION('center_axis',(0.,0.,1.));
#446=DIRECTION('ref_axis',(2.06703341312025E-14,-1.,0.));
#447=DIRECTION($,(1.,0.,0.));
#448=DIRECTION('center_axis',(0.,0.,1.));
#449=DIRECTION('ref_axis',(-1.,-2.06703341312025E-14,0.));
#450=DIRECTION($,(0.,-1.,0.));
#451=DIRECTION('center_axis',(0.,0.,1.));
#452=DIRECTION('ref_axis',(-9.91107195990168E-6,0.999999999950885,0.));
#453=DIRECTION($,(-0.999999999950885,-9.91107195114658E-6,0.));
#454=DIRECTION('center_axis',(0.,0.,1.));
#455=DIRECTION('ref_axis',(-1.,-2.06703341312025E-14,0.));
#456=DIRECTION($,(0.,0.,1.));
#457=DIRECTION('center_axis',(0.,0.,1.));
#458=DIRECTION('ref_axis',(-1.,-2.06703341312025E-14,0.));
#459=DIRECTION($,(0.,0.,1.));
#460=DIRECTION('center_axis',(0.,-1.,0.));
#461=DIRECTION('ref_axis',(1.,0.,0.));
#462=DIRECTION($,(0.,0.,1.));
#463=DIRECTION($,(1.,0.,0.));
#464=DIRECTION('center_axis',(0.,0.,1.));
#465=DIRECTION('ref_axis',(2.06703341312025E-14,-1.,0.));
#466=DIRECTION($,(0.,0.,1.));
#467=DIRECTION('center_axis',(0.,0.,1.));
#468=DIRECTION('ref_axis',(2.06703341312025E-14,-1.,0.));
#469=DIRECTION('center_axis',(1.,6.76696419526162E-15,0.));
#470=DIRECTION('ref_axis',(0.,1.,0.));
#471=DIRECTION($,(0.,0.,1.));
#472=DIRECTION($,(-6.76696419526162E-15,1.,0.));
#473=DIRECTION('center_axis',(-9.91107195114658E-6,0.999999999950885,0.));
#474=DIRECTION('ref_axis',(-0.999999999950885,-9.91107195069672E-6,0.));
#475=DIRECTION($,(0.,0.,1.));
#476=DIRECTION($,(-0.999999999950885,-9.91107195114658E-6,0.));
#477=DIRECTION($,(0.,0.,1.));
#478=DIRECTION('center_axis',(0.,0.,1.));
#479=DIRECTION('ref_axis',(1.,0.,0.));
#480=DIRECTION('center_axis',(0.,0.,1.));
#481=DIRECTION('ref_axis',(1.,0.,0.));
#482=DIRECTION('center_axis',(-1.,0.,0.));
#483=DIRECTION('ref_axis',(0.,-1.,0.));
#484=DIRECTION($,(0.,-1.,0.));
#485=DIRECTION($,(0.,0.,1.));
#486=DIRECTION('center_axis',(0.,0.,1.));
#487=DIRECTION('ref_axis',(-9.91107195990168E-6,0.999999999950885,0.));
#488=DIRECTION('center_axis',(0.,0.,1.));
#489=DIRECTION('ref_axis',(-9.91107195990168E-6,0.999999999950885,0.));
#490=DIRECTION('center_axis',(0.,0.,1.));
#491=DIRECTION('ref_axis',(1.,0.,0.));
#492=DIRECTION('center_axis',(0.,0.,1.));
#493=DIRECTION('ref_axis',(1.,0.,0.));
#494=CARTESIAN_POINT('',(0.,0.,0.));
#495=CARTESIAN_POINT('Origin',(65.8,23.9000000000001,-5.));
#496=CARTESIAN_POINT('',(65.8,23.9000000000001,-5.));
#497=CARTESIAN_POINT('',(4.20000000000005,23.9000000000001,-5.));
#498=CARTESIAN_POINT($,(65.8,23.9000000000001,-5.));
#499=CARTESIAN_POINT('',(4.20000000000005,23.9000000000001,0.));
#500=CARTESIAN_POINT($,(4.20000000000005,23.9000000000001,-5.));
#501=CARTESIAN_POINT('',(65.8,23.9000000000001,0.));
#502=CARTESIAN_POINT($,(65.8,23.9000000000001,0.));
#503=CARTESIAN_POINT($,(65.8,23.9000000000001,-5.));
#504=CARTESIAN_POINT('Origin',(65.7999999999998,19.6999999999999,-5.));
#505=CARTESIAN_POINT('',(70.0000000000001,19.7,-5.));
#506=CARTESIAN_POINT('Origin',(65.7999999999998,19.6999999999999,-5.));
#507=CARTESIAN_POINT('',(70.0000000000001,19.7,0.));
#508=CARTESIAN_POINT('Origin',(65.7999999999998,19.6999999999999,0.));
#509=CARTESIAN_POINT($,(70.0000000000001,19.7,-5.));
#510=CARTESIAN_POINT('Origin',(70.0000000000001,-19.7,-5.));
#511=CARTESIAN_POINT('',(70.0000000000001,-19.7,-5.));
#512=CARTESIAN_POINT($,(70.0000000000001,-19.7,-5.));
#513=CARTESIAN_POINT('',(70.0000000000001,-19.7,0.));
#514=CARTESIAN_POINT($,(70.0000000000001,-19.7,0.));
#515=CARTESIAN_POINT($,(70.0000000000001,-19.7,-5.));
#516=CARTESIAN_POINT('Origin',(65.7999999999998,-19.6999999999999,-5.));
#517=CARTESIAN_POINT('',(65.8,-23.9000000000001,-5.));
#518=CARTESIAN_POINT('Origin',(65.7999999999998,-19.6999999999999,-5.));
#519=CARTESIAN_POINT('',(65.8,-23.9000000000001,0.));
#520=CARTESIAN_POINT('Origin',(65.7999999999998,-19.6999999999999,0.));
#521=CARTESIAN_POINT($,(65.8,-23.9000000000001,-5.));
#522=CARTESIAN_POINT('Origin',(4.20000000000005,-23.9000000000001,-5.));
#523=CARTESIAN_POINT('',(4.20000000000005,-23.9000000000001,-5.));
#524=CARTESIAN_POINT($,(4.20000000000005,-23.9000000000001,-5.));
#525=CARTESIAN_POINT('',(4.20000000000005,-23.9000000000001,0.));
#526=CARTESIAN_POINT($,(4.20000000000005,-23.9000000000001,0.));
#527=CARTESIAN_POINT($,(4.20000000000005,-23.9000000000001,-5.));
#528=CARTESIAN_POINT('Origin',(4.20000000000016,-19.6999999999999,-5.));
#529=CARTESIAN_POINT('',(0.,-19.7,-5.));
#530=CARTESIAN_POINT('Origin',(4.20000000000016,-19.6999999999999,-5.));
#531=CARTESIAN_POINT('',(0.,-19.7,0.));
#532=CARTESIAN_POINT('Origin',(4.20000000000016,-19.6999999999999,0.));
#533=CARTESIAN_POINT($,(0.,-19.7,-5.));
#534=CARTESIAN_POINT('Origin',(0.,19.7,-5.));
#535=CARTESIAN_POINT('',(0.,19.7,-5.));
#536=CARTESIAN_POINT($,(0.,19.7,-5.));
#537=CARTESIAN_POINT('',(0.,19.7,0.));
#538=CARTESIAN_POINT($,(0.,19.7,0.));
#539=CARTESIAN_POINT($,(0.,19.7,-5.));
#540=CARTESIAN_POINT('Origin',(4.20000000000016,19.6999999999999,-5.));
#541=CARTESIAN_POINT('Origin',(4.20000000000016,19.6999999999999,-5.));
#542=CARTESIAN_POINT('Origin',(4.20000000000016,19.6999999999999,0.));
#543=CARTESIAN_POINT('Origin',(34.9999999999999,0.,0.));
#544=CARTESIAN_POINT('',(67.9999999999999,8.40027179709637,0.));
#545=CARTESIAN_POINT('',(62.4999454891042,13.9002717968262,0.));
#546=CARTESIAN_POINT('Origin',(62.5,8.40027179709648,0.));
#547=CARTESIAN_POINT('',(68.,-8.40000000000009,0.));
#548=CARTESIAN_POINT($,(68.,-4.19999999999993,0.));
#549=CARTESIAN_POINT('',(62.5,-13.9000000000001,0.));
#550=CARTESIAN_POINT('Origin',(62.4999999999999,-8.39999999999998,0.));
#551=CARTESIAN_POINT('',(7.5,-13.9000000000001,0.));
#552=CARTESIAN_POINT($,(21.25,-13.9000000000001,0.));
#553=CARTESIAN_POINT('',(2.,-8.40000000000009,0.));
#554=CARTESIAN_POINT('Origin',(7.50000000000011,-8.39999999999998,0.));
#555=CARTESIAN_POINT('',(2.,8.39972668813903,0.));
#556=CARTESIAN_POINT($,(2.,4.19986334406951,0.));
#557=CARTESIAN_POINT('',(7.49994548910422,13.899726687869,0.));
#558=CARTESIAN_POINT('Origin',(7.5,8.39972668813914,0.));
#559=CARTESIAN_POINT($,(48.7499038626057,13.9001355191743,0.));
#560=CARTESIAN_POINT('Origin',(7.50000000000011,-8.39999999999998,-5.));
#561=CARTESIAN_POINT('',(7.5,-13.9000000000001,0.5));
#562=CARTESIAN_POINT($,(7.5,-13.9000000000001,-5.));
#563=CARTESIAN_POINT('',(2.,-8.40000000000009,0.5));
#564=CARTESIAN_POINT('Origin',(7.50000000000011,-8.39999999999998,0.5));
#565=CARTESIAN_POINT($,(2.,-8.40000000000009,-5.));
#566=CARTESIAN_POINT('Origin',(7.5,-13.9000000000001,-5.));
#567=CARTESIAN_POINT('',(62.5,-13.9000000000001,0.5));
#568=CARTESIAN_POINT($,(62.5,-13.9000000000001,-5.));
#569=CARTESIAN_POINT($,(7.5,-13.9000000000001,0.5));
#570=CARTESIAN_POINT('Origin',(62.4999999999999,-8.39999999999998,-5.));
#571=CARTESIAN_POINT('',(68.,-8.40000000000009,0.5));
#572=CARTESIAN_POINT($,(68.,-8.40000000000009,-5.));
#573=CARTESIAN_POINT('Origin',(62.4999999999999,-8.39999999999998,0.5));
#574=CARTESIAN_POINT('Origin',(68.,-8.40000000000009,-5.));
#575=CARTESIAN_POINT('',(67.9999999999999,8.40027179709648,0.5));
#576=CARTESIAN_POINT($,(67.9999999999999,8.40027179709648,-5.));
#577=CARTESIAN_POINT($,(68.,-8.40000000000009,0.5));
#578=CARTESIAN_POINT('Origin',(62.4999454891042,13.9002717968262,-5.));
#579=CARTESIAN_POINT('',(7.49994548910422,13.8997266878689,0.5));
#580=CARTESIAN_POINT($,(7.49994548910422,13.8997266878689,-5.));
#581=CARTESIAN_POINT('',(62.4999454891042,13.9002717968262,0.5));
#582=CARTESIAN_POINT($,(62.4999454891042,13.9002717968262,0.5));
#583=CARTESIAN_POINT($,(62.4999454891042,13.9002717968262,-5.));
#584=CARTESIAN_POINT('Origin',(62.5,8.40027179709648,-5.));
#585=CARTESIAN_POINT('Origin',(62.5,8.40027179709648,0.5));
#586=CARTESIAN_POINT('Origin',(2.,8.39972668813903,-5.));
#587=CARTESIAN_POINT('',(2.00000000000011,8.39972668813903,0.5));
#588=CARTESIAN_POINT($,(2.,8.39972668813903,0.5));
#589=CARTESIAN_POINT($,(2.00000000000011,8.39972668813903,-5.));
#590=CARTESIAN_POINT('Origin',(7.5,8.39972668813914,-5.));
#591=CARTESIAN_POINT('Origin',(7.5,8.39972668813914,0.5));
#592=CARTESIAN_POINT('Origin',(35.0001016945537,-3.77987817046233E-7,0.5));
#593=CARTESIAN_POINT('Origin',(35.0001016945537,-3.77987817046233E-7,-5.));
#594=UNCERTAINTY_MEASURE_WITH_UNIT(LENGTH_MEASURE(0.01),#598,
'DISTANCE_ACCURACY_VALUE',
'Maximum model space distance between geometric entities at asserted c
onnectivities');
#595=UNCERTAINTY_MEASURE_WITH_UNIT(LENGTH_MEASURE(1.E-6),#598,
'DISTANCE_ACCURACY_VALUE',
'Maximum model space distance between geometric entities at asserted c
onnectivities');
#596=(
GEOMETRIC_REPRESENTATION_CONTEXT(3)
GLOBAL_UNCERTAINTY_ASSIGNED_CONTEXT((#594))
GLOBAL_UNIT_ASSIGNED_CONTEXT((#598,#600,#599))
REPRESENTATION_CONTEXT('','3D')
);
#597=(
GEOMETRIC_REPRESENTATION_CONTEXT(3)
GLOBAL_UNCERTAINTY_ASSIGNED_CONTEXT((#595))
GLOBAL_UNIT_ASSIGNED_CONTEXT((#598,#12,#599))
REPRESENTATION_CONTEXT('','3D')
);
#598=(
LENGTH_UNIT()
NAMED_UNIT(*)
SI_UNIT(.MILLI.,.METRE.)
);
#599=(
NAMED_UNIT(*)
SI_UNIT($,.STERADIAN.)
SOLID_ANGLE_UNIT()
);
#600=(
NAMED_UNIT(*)
PLANE_ANGLE_UNIT()
SI_UNIT($,.RADIAN.)
);
#601=SHAPE_DEFINITION_REPRESENTATION(#602,#603);
#602=PRODUCT_DEFINITION_SHAPE('',$,#605);
#603=SHAPE_REPRESENTATION('',(#354),#596);
#604=PRODUCT_DEFINITION_CONTEXT('part definition',#609,'design');
#605=PRODUCT_DEFINITION('Product','Product',#606,#604);
#606=PRODUCT_DEFINITION_FORMATION('',$,#611);
#607=PRODUCT_RELATED_PRODUCT_CATEGORY('Product','Product',(#611));
#608=APPLICATION_PROTOCOL_DEFINITION('international standard',
'automotive_design',2009,#609);
#609=APPLICATION_CONTEXT(
'Core Data for Automotive Mechanical Design Process');
#610=PRODUCT_CONTEXT('part definition',#609,'mechanical');
#611=PRODUCT('Product','Product',$,(#610));
#612=PRESENTATION_STYLE_ASSIGNMENT((#613));
#613=SURFACE_STYLE_USAGE(.BOTH.,#614);
#614=SURFACE_SIDE_STYLE($,(#615));
#615=SURFACE_STYLE_FILL_AREA(#616);
#616=FILL_AREA_STYLE($,(#617));
#617=FILL_AREA_STYLE_COLOUR($,#618);
#618=COLOUR_RGB('',1.,1.,1.);
ENDSEC;
END-ISO-10303-21;
