ISO-10303-21;
HEADER;
/****************************************************************
 * Generated by software with PDElib inside                    *
 * PDElib Version v51a, created Fri 09/10/2010                  *
 * ITI Transcendata (http://www.transcendata.com/)              *
 ****************************************************************/
FILE_DESCRIPTION((''),'2;1');
FILE_NAME('3d_SAX00PA320.stp','2012-10-03T08:46:43',(''),(''),'Mechanical Desktop 2011','Mechanical Desktop 2011',', , ');
FILE_SCHEMA(('CONFIG_CONTROL_DESIGN'));
ENDSEC;
DATA;
#10=(NAMED_UNIT(*)PLANE_ANGLE_UNIT()SI_UNIT($,.RADIAN.));
#11=DIMENSIONAL_EXPONENTS(0.0,0.0,0.0,0.0,0.0,0.0,0.0);
#12=PLANE_ANGLE_MEASURE_WITH_UNIT(PLANE_ANGLE_MEASURE(0.0174532925),#10);
#16=(CONVERSION_BASED_UNIT('DEGREE',#12)NAMED_UNIT(#11)PLANE_ANGLE_UNIT());
#20=(NAMED_UNIT(*)SI_UNIT($,.STERADIAN.)SOLID_ANGLE_UNIT());
#24=(LENGTH_UNIT()NAMED_UNIT(*)SI_UNIT(.MILLI.,.METRE.));
#26=UNCERTAINTY_MEASURE_WITH_UNIT(LENGTH_MEASURE(0.000001),#24,'DISTANCE_ACCURACY_VALUE','');
#28=(GEOMETRIC_REPRESENTATION_CONTEXT(3)GLOBAL_UNCERTAINTY_ASSIGNED_CONTEXT((#26))GLOBAL_UNIT_ASSIGNED_CONTEXT((#16,#20,#24))REPRESENTATION_CONTEXT('','3D'));
#29=APPLICATION_CONTEXT('CONFIGURATION CONTROLLED 3D DESIGNS OF MECHANICAL PARTS AND ASSEMBLIES');
#30=APPLICATION_PROTOCOL_DEFINITION('INTERNATIONAL STANDARD','config_control_design',1995,#29);
#31=MECHANICAL_CONTEXT('3D Mechanical Parts',#29,'mechanical');
#32=PRODUCT('Product','Product',' ',(#31));
#33=PRODUCT_RELATED_PRODUCT_CATEGORY('detail',$,(#32));
#34=PRODUCT_CATEGORY('part',$);
#35=PRODUCT_CATEGORY_RELATIONSHIP('None','None',#34,#33);
#36=PERSON('1','Design','Joe',$,$,$);
#37=ORGANIZATION($,'None','None');
#38=PERSON_AND_ORGANIZATION(#36,#37);
#39=PERSON_AND_ORGANIZATION_ROLE('design_owner');
#40=CC_DESIGN_PERSON_AND_ORGANIZATION_ASSIGNMENT(#38,#39,(#32));
#41=PRODUCT_DEFINITION_FORMATION_WITH_SPECIFIED_SOURCE('None','None',#32,.BOUGHT.);
#42=PERSON('2','Creator','Joe',$,$,$);
#43=ORGANIZATION($,'None','None');
#44=PERSON_AND_ORGANIZATION(#42,#43);
#45=PERSON_AND_ORGANIZATION_ROLE('creator');
#46=CC_DESIGN_PERSON_AND_ORGANIZATION_ASSIGNMENT(#44,#45,(#41));
#47=PERSON('3','Supplier','Joe',$,$,$);
#48=ORGANIZATION($,'None','None');
#49=PERSON_AND_ORGANIZATION(#47,#48);
#50=PERSON_AND_ORGANIZATION_ROLE('design_supplier');
#51=CC_DESIGN_PERSON_AND_ORGANIZATION_ASSIGNMENT(#49,#50,(#41));
#52=APPROVAL_STATUS('approved');
#53=APPROVAL(#52,'None');
#54=PERSON('4','Approver','Joe',$,$,$);
#55=ORGANIZATION($,'None','None');
#56=PERSON_AND_ORGANIZATION(#54,#55);
#57=APPROVAL_ROLE('approver');
#58=APPROVAL_PERSON_ORGANIZATION(#56,#53,#57);
#59=COORDINATED_UNIVERSAL_TIME_OFFSET(8,$,.EXACT.);
#60=CALENDAR_DATE(1996,29,5);
#61=LOCAL_TIME(12,0,0.0,#59);
#62=DATE_AND_TIME(#60,#61);
#63=APPROVAL_DATE_TIME(#62,#53);
#64=CC_DESIGN_APPROVAL(#53,(#41));
#65=SECURITY_CLASSIFICATION_LEVEL('unclassified');
#66=SECURITY_CLASSIFICATION('security','None',#65);
#67=CC_DESIGN_SECURITY_CLASSIFICATION(#66,(#41));
#68=APPROVAL_STATUS('approved');
#69=APPROVAL(#68,'None');
#70=PERSON('5','Approver','Joe',$,$,$);
#71=ORGANIZATION($,'None','None');
#72=PERSON_AND_ORGANIZATION(#70,#71);
#73=APPROVAL_ROLE('approver');
#74=APPROVAL_PERSON_ORGANIZATION(#72,#69,#73);
#75=COORDINATED_UNIVERSAL_TIME_OFFSET(8,$,.EXACT.);
#76=CALENDAR_DATE(1996,29,5);
#77=LOCAL_TIME(12,0,0.0,#75);
#78=DATE_AND_TIME(#76,#77);
#79=APPROVAL_DATE_TIME(#78,#69);
#80=CC_DESIGN_APPROVAL(#69,(#66));
#81=PERSON('6','Classifier','Joe',$,$,$);
#82=ORGANIZATION($,'None','None');
#83=PERSON_AND_ORGANIZATION(#81,#82);
#84=PERSON_AND_ORGANIZATION_ROLE('classification_officer');
#85=CC_DESIGN_PERSON_AND_ORGANIZATION_ASSIGNMENT(#83,#84,(#66));
#86=COORDINATED_UNIVERSAL_TIME_OFFSET(8,$,.EXACT.);
#87=CALENDAR_DATE(1996,29,5);
#88=LOCAL_TIME(12,0,0.0,#86);
#89=DATE_AND_TIME(#87,#88);
#90=DATE_TIME_ROLE('classification_date');
#91=CC_DESIGN_DATE_AND_TIME_ASSIGNMENT(#89,#90,(#66));
#92=DESIGN_CONTEXT('Design Context',#29,'design');
#93=PRODUCT_DEFINITION('None','None',#41,#92);
#94=PERSON('7','Creator','Joe',$,$,$);
#95=ORGANIZATION($,'None','None');
#96=PERSON_AND_ORGANIZATION(#94,#95);
#97=PERSON_AND_ORGANIZATION_ROLE('creator');
#98=CC_DESIGN_PERSON_AND_ORGANIZATION_ASSIGNMENT(#96,#97,(#93));
#99=COORDINATED_UNIVERSAL_TIME_OFFSET(8,$,.EXACT.);
#100=CALENDAR_DATE(1996,29,5);
#101=LOCAL_TIME(12,0,0.0,#99);
#102=DATE_AND_TIME(#100,#101);
#103=DATE_TIME_ROLE('creation_date');
#104=CC_DESIGN_DATE_AND_TIME_ASSIGNMENT(#102,#103,(#93));
#105=APPROVAL_STATUS('approved');
#106=APPROVAL(#105,'None');
#107=PERSON('8','Approver','Joe',$,$,$);
#108=ORGANIZATION($,'None','None');
#109=PERSON_AND_ORGANIZATION(#107,#108);
#110=APPROVAL_ROLE('approver');
#111=APPROVAL_PERSON_ORGANIZATION(#109,#106,#110);
#112=COORDINATED_UNIVERSAL_TIME_OFFSET(8,$,.EXACT.);
#113=CALENDAR_DATE(1996,29,5);
#114=LOCAL_TIME(12,0,0.0,#112);
#115=DATE_AND_TIME(#113,#114);
#116=APPROVAL_DATE_TIME(#115,#106);
#117=CC_DESIGN_APPROVAL(#106,(#93));
#118=CARTESIAN_POINT('NONE',(0.0,0.0,0.0));
#119=DIRECTION('NONE',(0.0,0.0,1.0));
#120=DIRECTION('NONE',(1.0,0.0,0.0));
#121=AXIS2_PLACEMENT_3D('NONE',#118,#119,#120);
#122=SHAPE_REPRESENTATION('SR1',(#121),#28);
#123=PRODUCT_DEFINITION_SHAPE('PDS1','Test Part',#93);
#124=SHAPE_DEFINITION_REPRESENTATION(#123,#122);
#125=CARTESIAN_POINT('',(18.0,23.0,-3.552714E-015));
#126=DIRECTION('',(0.0,1.0,0.0));
#127=DIRECTION('',(-1.0,0.0,0.0));
#128=AXIS2_PLACEMENT_3D('',#125,#126,#127);
#129=PLANE('',#128);
#130=CARTESIAN_POINT('',(0.0,23.0,-3.552714E-015));
#131=VERTEX_POINT('',#130);
#132=CARTESIAN_POINT('',(1.421085E-014,23.0,52.022619628937832));
#133=VERTEX_POINT('',#132);
#134=CARTESIAN_POINT('',(1.102549E-014,23.0,0.0));
#135=DIRECTION('',(0.0,0.0,1.0));
#136=VECTOR('',#135,52.022619628937832);
#137=LINE('',#134,#136);
#138=EDGE_CURVE('',#131,#133,#137,.T.);
#139=ORIENTED_EDGE('',*,*,#138,.T.);
#140=CARTESIAN_POINT('',(18.000000000000014,23.0,52.022619628937832));
#141=VERTEX_POINT('',#140);
#142=CARTESIAN_POINT('',(18.000000000000014,23.0,52.022619628937832));
#143=DIRECTION('',(-1.0,0.0,0.0));
#144=VECTOR('',#143,18.0);
#145=LINE('',#142,#144);
#146=EDGE_CURVE('',#141,#133,#145,.T.);
#147=ORIENTED_EDGE('',*,*,#146,.F.);
#148=CARTESIAN_POINT('',(18.0,23.0,-3.552714E-015));
#149=VERTEX_POINT('',#148);
#150=CARTESIAN_POINT('',(18.000000000000014,23.0,52.022619628937832));
#151=DIRECTION('',(0.0,0.0,-1.0));
#152=VECTOR('',#151,52.022619628937832);
#153=LINE('',#150,#152);
#154=EDGE_CURVE('',#141,#149,#153,.T.);
#155=ORIENTED_EDGE('',*,*,#154,.T.);
#156=CARTESIAN_POINT('',(18.0,23.0,-3.552714E-015));
#157=DIRECTION('',(-1.0,0.0,0.0));
#158=VECTOR('',#157,18.0);
#159=LINE('',#156,#158);
#160=EDGE_CURVE('',#149,#131,#159,.T.);
#161=ORIENTED_EDGE('',*,*,#160,.T.);
#162=EDGE_LOOP('',(#139,#147,#155,#161));
#163=FACE_OUTER_BOUND('',#162,.T.);
#164=ADVANCED_FACE('',(#163),#129,.T.);
#165=CARTESIAN_POINT('',(18.000000000000014,11.500000000000028,26.822619628939609));
#166=DIRECTION('',(-1.0,0.0,6.123032E-017));
#167=DIRECTION('',(0.0,0.0,1.0));
#168=AXIS2_PLACEMENT_3D('',#165,#166,#167);
#169=CYLINDRICAL_SURFACE('',#168,27.699999999998379);
#170=CARTESIAN_POINT('',(1.421085E-014,2.842171E-013,52.022619628937946));
#171=VERTEX_POINT('',#170);
#172=CARTESIAN_POINT('',(0.0,11.500000000000028,26.822619628939609));
#173=DIRECTION('',(1.0,0.0,0.0));
#174=DIRECTION('',(0.0,0.0,1.0));
#175=AXIS2_PLACEMENT_3D('',#172,#173,#174);
#176=CIRCLE('',#175,27.699999999998379);
#177=EDGE_CURVE('',#133,#171,#176,.T.);
#178=ORIENTED_EDGE('',*,*,#177,.T.);
#179=CARTESIAN_POINT('',(18.000000000000014,2.842171E-013,52.022619628937946));
#180=VERTEX_POINT('',#179);
#181=CARTESIAN_POINT('',(18.000000000000014,2.842171E-013,52.022619628937946));
#182=DIRECTION('',(-1.0,0.0,0.0));
#183=VECTOR('',#182,18.0);
#184=LINE('',#181,#183);
#185=EDGE_CURVE('',#180,#171,#184,.T.);
#186=ORIENTED_EDGE('',*,*,#185,.F.);
#187=CARTESIAN_POINT('',(18.000000000000014,11.500000000000028,26.822619628939609));
#188=DIRECTION('',(-1.0,0.0,0.0));
#189=DIRECTION('',(0.0,0.0,1.0));
#190=AXIS2_PLACEMENT_3D('',#187,#188,#189);
#191=CIRCLE('',#190,27.699999999998379);
#192=EDGE_CURVE('',#180,#141,#191,.T.);
#193=ORIENTED_EDGE('',*,*,#192,.T.);
#194=ORIENTED_EDGE('',*,*,#146,.T.);
#195=EDGE_LOOP('',(#178,#186,#193,#194));
#196=FACE_OUTER_BOUND('',#195,.T.);
#197=ADVANCED_FACE('',(#196),#169,.T.);
#198=CARTESIAN_POINT('',(18.000000000000014,-11.499999999999744,77.222619628937508));
#199=DIRECTION('',(-1.0,0.0,6.123032E-017));
#200=DIRECTION('',(0.0,0.0,-1.0));
#201=AXIS2_PLACEMENT_3D('',#198,#199,#200);
#202=CYLINDRICAL_SURFACE('',#201,27.699999999999616);
#203=CARTESIAN_POINT('',(1.421085E-014,-23.0,52.022619628938045));
#204=VERTEX_POINT('',#203);
#205=CARTESIAN_POINT('',(1.421085E-014,-11.499999999999744,77.222619628937508));
#206=DIRECTION('',(-1.0,0.0,0.0));
#207=DIRECTION('',(0.0,0.0,-1.0));
#208=AXIS2_PLACEMENT_3D('',#205,#206,#207);
#209=CIRCLE('',#208,27.699999999999616);
#210=EDGE_CURVE('',#171,#204,#209,.T.);
#211=ORIENTED_EDGE('',*,*,#210,.T.);
#212=CARTESIAN_POINT('',(18.000000000000014,-23.0,52.022619628938045));
#213=VERTEX_POINT('',#212);
#214=CARTESIAN_POINT('',(18.000000000000014,-23.0,52.022619628938045));
#215=DIRECTION('',(-1.0,0.0,0.0));
#216=VECTOR('',#215,18.0);
#217=LINE('',#214,#216);
#218=EDGE_CURVE('',#213,#204,#217,.T.);
#219=ORIENTED_EDGE('',*,*,#218,.F.);
#220=CARTESIAN_POINT('',(18.000000000000014,-11.499999999999744,77.222619628937508));
#221=DIRECTION('',(1.0,0.0,0.0));
#222=DIRECTION('',(0.0,0.0,-1.0));
#223=AXIS2_PLACEMENT_3D('',#220,#221,#222);
#224=CIRCLE('',#223,27.699999999999616);
#225=EDGE_CURVE('',#213,#180,#224,.T.);
#226=ORIENTED_EDGE('',*,*,#225,.T.);
#227=ORIENTED_EDGE('',*,*,#185,.T.);
#228=EDGE_LOOP('',(#211,#219,#226,#227));
#229=FACE_OUTER_BOUND('',#228,.T.);
#230=ADVANCED_FACE('',(#229),#202,.F.);
#231=CARTESIAN_POINT('',(18.000000000000014,-23.0,52.022619628938045));
#232=DIRECTION('',(0.0,-1.0,0.0));
#233=DIRECTION('',(1.0,0.0,0.0));
#234=AXIS2_PLACEMENT_3D('',#231,#232,#233);
#235=PLANE('',#234);
#236=CARTESIAN_POINT('',(0.0,-23.0,3.552714E-015));
#237=VERTEX_POINT('',#236);
#238=CARTESIAN_POINT('',(3.185362E-015,-23.000000000000014,52.022619628938045));
#239=DIRECTION('',(0.0,0.0,-1.0));
#240=VECTOR('',#239,52.022619628938045);
#241=LINE('',#238,#240);
#242=EDGE_CURVE('',#204,#237,#241,.T.);
#243=ORIENTED_EDGE('',*,*,#242,.T.);
#244=CARTESIAN_POINT('',(18.0,-23.0,3.552714E-015));
#245=VERTEX_POINT('',#244);
#246=CARTESIAN_POINT('',(18.0,-23.0,3.552714E-015));
#247=DIRECTION('',(-1.0,0.0,0.0));
#248=VECTOR('',#247,18.0);
#249=LINE('',#246,#248);
#250=EDGE_CURVE('',#245,#237,#249,.T.);
#251=ORIENTED_EDGE('',*,*,#250,.F.);
#252=CARTESIAN_POINT('',(18.0,-23.0,3.552714E-015));
#253=DIRECTION('',(0.0,0.0,1.0));
#254=VECTOR('',#253,52.022619628938045);
#255=LINE('',#252,#254);
#256=EDGE_CURVE('',#245,#213,#255,.T.);
#257=ORIENTED_EDGE('',*,*,#256,.T.);
#258=ORIENTED_EDGE('',*,*,#218,.T.);
#259=EDGE_LOOP('',(#243,#251,#257,#258));
#260=FACE_OUTER_BOUND('',#259,.T.);
#261=ADVANCED_FACE('',(#260),#235,.T.);
#262=CARTESIAN_POINT('',(18.0,-23.0,3.552714E-015));
#263=DIRECTION('',(0.0,0.0,-1.0));
#264=DIRECTION('',(-1.0,0.0,0.0));
#265=AXIS2_PLACEMENT_3D('',#262,#263,#264);
#266=PLANE('',#265);
#267=CARTESIAN_POINT('',(4.350676E-031,-23.0,3.552714E-015));
#268=DIRECTION('',(0.0,1.0,0.0));
#269=VECTOR('',#268,46.0);
#270=LINE('',#267,#269);
#271=EDGE_CURVE('',#237,#131,#270,.T.);
#272=ORIENTED_EDGE('',*,*,#271,.T.);
#273=ORIENTED_EDGE('',*,*,#160,.F.);
#274=CARTESIAN_POINT('',(18.0,23.0,-3.552714E-015));
#275=DIRECTION('',(0.0,-1.0,0.0));
#276=VECTOR('',#275,46.0);
#277=LINE('',#274,#276);
#278=EDGE_CURVE('',#149,#245,#277,.T.);
#279=ORIENTED_EDGE('',*,*,#278,.T.);
#280=ORIENTED_EDGE('',*,*,#250,.T.);
#281=EDGE_LOOP('',(#272,#273,#279,#280));
#282=FACE_OUTER_BOUND('',#281,.T.);
#283=ADVANCED_FACE('',(#282),#266,.T.);
#284=CARTESIAN_POINT('',(0.0,-2.842171E-014,26.200433108285441));
#285=DIRECTION('',(-1.0,0.0,0.0));
#286=DIRECTION('',(0.0,0.0,1.0));
#287=AXIS2_PLACEMENT_3D('',#284,#285,#286);
#288=PLANE('',#287);
#289=ORIENTED_EDGE('',*,*,#138,.F.);
#290=ORIENTED_EDGE('',*,*,#271,.F.);
#291=ORIENTED_EDGE('',*,*,#242,.F.);
#292=ORIENTED_EDGE('',*,*,#210,.F.);
#293=ORIENTED_EDGE('',*,*,#177,.F.);
#294=EDGE_LOOP('',(#289,#290,#291,#292,#293));
#295=FACE_OUTER_BOUND('',#294,.T.);
#296=ADVANCED_FACE('',(#295),#288,.T.);
#297=CARTESIAN_POINT('',(18.000000000000014,-2.842171E-014,26.200433108285441));
#298=DIRECTION('',(-1.0,0.0,0.0));
#299=DIRECTION('',(0.0,0.0,1.0));
#300=AXIS2_PLACEMENT_3D('',#297,#298,#299);
#301=PLANE('',#300);
#302=ORIENTED_EDGE('',*,*,#278,.F.);
#303=ORIENTED_EDGE('',*,*,#154,.F.);
#304=ORIENTED_EDGE('',*,*,#192,.F.);
#305=ORIENTED_EDGE('',*,*,#225,.F.);
#306=ORIENTED_EDGE('',*,*,#256,.F.);
#307=EDGE_LOOP('',(#302,#303,#304,#305,#306));
#308=FACE_OUTER_BOUND('',#307,.T.);
#309=ADVANCED_FACE('',(#308),#301,.F.);
#310=CLOSED_SHELL('',(#164,#197,#230,#261,#283,#296,#309));
#311=MANIFOLD_SOLID_BREP('5E40',#310);
#312=ADVANCED_BREP_SHAPE_REPRESENTATION('ABSR1',(#311),#28);
#313=SHAPE_REPRESENTATION_RELATIONSHIP('SRRPL1','',#312,#122);
ENDSEC;
END-ISO-10303-21;
