ISO-10303-21;
HEADER;
/* Generated by software containing ST-Developer
 * from STEP Tools, Inc. (www.steptools.com) 
 */

FILE_DESCRIPTION(
/* description */ (''),
/* implementation_level */ '2;1');

FILE_NAME(
/* name */ 'c:\\dwg_dest\\3d_EXCRDU1_lovato_adx_0085.stp',
/* time_stamp */ '2016-09-07T14:49:11+02:00',
/* author */ ('Andrzej'),
/* organization */ (''),
/* preprocessor_version */ 'ST-DEVELOPER v15.5',
/* originating_system */ 'AutoCAD Mechanical',
/* authorisation */ '');

FILE_SCHEMA (('AUTOMOTIVE_DESIGN { 1 0 10303 214 3 1 1 }'));
ENDSEC;

DATA;
#10=MECHANICAL_DESIGN_GEOMETRIC_PRESENTATION_REPRESENTATION('',(#17),#501);
#11=DIMENSIONAL_EXPONENTS(0.,0.,0.,0.,0.,0.,0.);
#12=(
CONVERSION_BASED_UNIT('degree',#13)
NAMED_UNIT(#11)
PLANE_ANGLE_UNIT()
);
#13=PLANE_ANGLE_MEASURE_WITH_UNIT(PLANE_ANGLE_MEASURE(0.01745329252),#504);
#14=PRESENTATION_LAYER_ASSIGNMENT('0','',(#311));
#15=SHAPE_REPRESENTATION_RELATIONSHIP('SRR','None',#507,#16);
#16=ADVANCED_BREP_SHAPE_REPRESENTATION($,(#311),#500);
#17=STYLED_ITEM($,(#516),#311);
#18=CIRCLE($,#318,232.9);
#19=CIRCLE($,#319,232.9);
#20=CIRCLE($,#320,232.9);
#21=CIRCLE($,#321,232.9);
#22=CYLINDRICAL_SURFACE($,#317,232.9);
#23=FACE_BOUND($,#43,.T.);
#24=FACE_OUTER_BOUND($,#41,.T.);
#25=FACE_OUTER_BOUND($,#42,.T.);
#26=FACE_OUTER_BOUND($,#44,.T.);
#27=FACE_OUTER_BOUND($,#45,.T.);
#28=FACE_OUTER_BOUND($,#46,.T.);
#29=FACE_OUTER_BOUND($,#47,.T.);
#30=FACE_OUTER_BOUND($,#48,.T.);
#31=FACE_OUTER_BOUND($,#49,.T.);
#32=FACE_OUTER_BOUND($,#50,.T.);
#33=FACE_OUTER_BOUND($,#51,.T.);
#34=FACE_OUTER_BOUND($,#52,.T.);
#35=FACE_OUTER_BOUND($,#53,.T.);
#36=FACE_OUTER_BOUND($,#54,.T.);
#37=FACE_OUTER_BOUND($,#55,.T.);
#38=FACE_OUTER_BOUND($,#56,.T.);
#39=FACE_OUTER_BOUND($,#57,.T.);
#40=FACE_OUTER_BOUND($,#58,.T.);
#41=EDGE_LOOP($,(#197,#198,#199,#200));
#42=EDGE_LOOP($,(#201,#202,#203,#204));
#43=EDGE_LOOP($,(#205,#206,#207,#208));
#44=EDGE_LOOP($,(#209,#210,#211,#212));
#45=EDGE_LOOP($,(#213,#214,#215,#216));
#46=EDGE_LOOP($,(#217,#218,#219,#220,#221,#222,#223,#224));
#47=EDGE_LOOP($,(#225,#226,#227,#228));
#48=EDGE_LOOP($,(#229,#230,#231,#232));
#49=EDGE_LOOP($,(#233,#234,#235,#236,#237,#238));
#50=EDGE_LOOP($,(#239,#240,#241,#242,#243));
#51=EDGE_LOOP($,(#244,#245,#246,#247,#248));
#52=EDGE_LOOP($,(#249,#250,#251,#252));
#53=EDGE_LOOP($,(#253,#254,#255,#256));
#54=EDGE_LOOP($,(#257,#258,#259,#260));
#55=EDGE_LOOP($,(#261,#262,#263,#264));
#56=EDGE_LOOP($,(#265,#266,#267,#268));
#57=EDGE_LOOP($,(#269,#270,#271,#272));
#58=EDGE_LOOP($,(#273,#274,#275,#276));
#59=LINE($,#418,#95);
#60=LINE($,#420,#96);
#61=LINE($,#422,#97);
#62=LINE($,#423,#98);
#63=LINE($,#427,#99);
#64=LINE($,#429,#100);
#65=LINE($,#431,#101);
#66=LINE($,#432,#102);
#67=LINE($,#435,#103);
#68=LINE($,#437,#104);
#69=LINE($,#439,#105);
#70=LINE($,#440,#106);
#71=LINE($,#444,#107);
#72=LINE($,#445,#108);
#73=LINE($,#446,#109);
#74=LINE($,#449,#110);
#75=LINE($,#451,#111);
#76=LINE($,#452,#112);
#77=LINE($,#458,#113);
#78=LINE($,#461,#114);
#79=LINE($,#465,#115);
#80=LINE($,#467,#116);
#81=LINE($,#469,#117);
#82=LINE($,#470,#118);
#83=LINE($,#472,#119);
#84=LINE($,#473,#120);
#85=LINE($,#475,#121);
#86=LINE($,#479,#122);
#87=LINE($,#484,#123);
#88=LINE($,#486,#124);
#89=LINE($,#488,#125);
#90=LINE($,#489,#126);
#91=LINE($,#491,#127);
#92=LINE($,#492,#128);
#93=LINE($,#494,#129);
#94=LINE($,#496,#130);
#95=VECTOR($,#338,0.5);
#96=VECTOR($,#339,76.);
#97=VECTOR($,#340,0.5);
#98=VECTOR($,#341,76.);
#99=VECTOR($,#344,96.);
#100=VECTOR($,#345,96.);
#101=VECTOR($,#346,96.0000000000001);
#102=VECTOR($,#347,96.);
#103=VECTOR($,#348,90.8);
#104=VECTOR($,#349,90.8);
#105=VECTOR($,#350,90.8);
#106=VECTOR($,#351,90.8);
#107=VECTOR($,#354,76.0000000000001);
#108=VECTOR($,#355,64.);
#109=VECTOR($,#356,64.);
#110=VECTOR($,#359,22.);
#111=VECTOR($,#360,76.);
#112=VECTOR($,#361,22.);
#113=VECTOR($,#366,96.0000000000001);
#114=VECTOR($,#369,10.);
#115=VECTOR($,#372,76.);
#116=VECTOR($,#375,10.);
#117=VECTOR($,#378,14.);
#118=VECTOR($,#379,14.);
#119=VECTOR($,#382,2.37904604206187);
#120=VECTOR($,#383,2.37904604206187);
#121=VECTOR($,#386,14.);
#122=VECTOR($,#393,14.);
#123=VECTOR($,#398,90.8);
#124=VECTOR($,#399,90.8);
#125=VECTOR($,#400,90.8);
#126=VECTOR($,#401,90.8);
#127=VECTOR($,#404,24.);
#128=VECTOR($,#405,24.);
#129=VECTOR($,#408,24.);
#130=VECTOR($,#411,24.);
#131=VERTEX_POINT($,#416);
#132=VERTEX_POINT($,#417);
#133=VERTEX_POINT($,#419);
#134=VERTEX_POINT($,#421);
#135=VERTEX_POINT($,#425);
#136=VERTEX_POINT($,#426);
#137=VERTEX_POINT($,#428);
#138=VERTEX_POINT($,#430);
#139=VERTEX_POINT($,#433);
#140=VERTEX_POINT($,#434);
#141=VERTEX_POINT($,#436);
#142=VERTEX_POINT($,#438);
#143=VERTEX_POINT($,#442);
#144=VERTEX_POINT($,#443);
#145=VERTEX_POINT($,#448);
#146=VERTEX_POINT($,#450);
#147=VERTEX_POINT($,#454);
#148=VERTEX_POINT($,#455);
#149=VERTEX_POINT($,#457);
#150=VERTEX_POINT($,#459);
#151=VERTEX_POINT($,#462);
#152=VERTEX_POINT($,#464);
#153=VERTEX_POINT($,#482);
#154=VERTEX_POINT($,#483);
#155=VERTEX_POINT($,#485);
#156=VERTEX_POINT($,#487);
#157=EDGE_CURVE($,#131,#132,#59,.T.);
#158=EDGE_CURVE($,#132,#133,#60,.T.);
#159=EDGE_CURVE($,#133,#134,#61,.T.);
#160=EDGE_CURVE($,#131,#134,#62,.T.);
#161=EDGE_CURVE($,#135,#136,#63,.T.);
#162=EDGE_CURVE($,#137,#135,#64,.T.);
#163=EDGE_CURVE($,#138,#137,#65,.T.);
#164=EDGE_CURVE($,#136,#138,#66,.T.);
#165=EDGE_CURVE($,#139,#140,#67,.T.);
#166=EDGE_CURVE($,#141,#139,#68,.T.);
#167=EDGE_CURVE($,#142,#141,#69,.T.);
#168=EDGE_CURVE($,#140,#142,#70,.T.);
#169=EDGE_CURVE($,#143,#144,#71,.T.);
#170=EDGE_CURVE($,#144,#133,#72,.T.);
#171=EDGE_CURVE($,#143,#132,#73,.T.);
#172=EDGE_CURVE($,#134,#145,#74,.T.);
#173=EDGE_CURVE($,#146,#145,#75,.T.);
#174=EDGE_CURVE($,#146,#131,#76,.T.);
#175=EDGE_CURVE($,#147,#148,#18,.T.);
#176=EDGE_CURVE($,#149,#147,#77,.T.);
#177=EDGE_CURVE($,#150,#149,#19,.T.);
#178=EDGE_CURVE($,#145,#150,#78,.T.);
#179=EDGE_CURVE($,#151,#145,#20,.T.);
#180=EDGE_CURVE($,#152,#151,#79,.T.);
#181=EDGE_CURVE($,#146,#152,#21,.T.);
#182=EDGE_CURVE($,#148,#146,#80,.T.);
#183=EDGE_CURVE($,#136,#148,#81,.T.);
#184=EDGE_CURVE($,#138,#147,#82,.T.);
#185=EDGE_CURVE($,#151,#144,#83,.T.);
#186=EDGE_CURVE($,#152,#143,#84,.T.);
#187=EDGE_CURVE($,#135,#150,#85,.T.);
#188=EDGE_CURVE($,#137,#149,#86,.T.);
#189=EDGE_CURVE($,#153,#154,#87,.T.);
#190=EDGE_CURVE($,#155,#153,#88,.T.);
#191=EDGE_CURVE($,#156,#155,#89,.T.);
#192=EDGE_CURVE($,#154,#156,#90,.T.);
#193=EDGE_CURVE($,#140,#153,#91,.T.);
#194=EDGE_CURVE($,#142,#155,#92,.T.);
#195=EDGE_CURVE($,#139,#154,#93,.T.);
#196=EDGE_CURVE($,#141,#156,#94,.T.);
#197=ORIENTED_EDGE($,*,*,#157,.T.);
#198=ORIENTED_EDGE($,*,*,#158,.T.);
#199=ORIENTED_EDGE($,*,*,#159,.T.);
#200=ORIENTED_EDGE($,*,*,#160,.F.);
#201=ORIENTED_EDGE($,*,*,#161,.F.);
#202=ORIENTED_EDGE($,*,*,#162,.F.);
#203=ORIENTED_EDGE($,*,*,#163,.F.);
#204=ORIENTED_EDGE($,*,*,#164,.F.);
#205=ORIENTED_EDGE($,*,*,#165,.F.);
#206=ORIENTED_EDGE($,*,*,#166,.F.);
#207=ORIENTED_EDGE($,*,*,#167,.F.);
#208=ORIENTED_EDGE($,*,*,#168,.F.);
#209=ORIENTED_EDGE($,*,*,#169,.T.);
#210=ORIENTED_EDGE($,*,*,#170,.T.);
#211=ORIENTED_EDGE($,*,*,#158,.F.);
#212=ORIENTED_EDGE($,*,*,#171,.F.);
#213=ORIENTED_EDGE($,*,*,#160,.T.);
#214=ORIENTED_EDGE($,*,*,#172,.T.);
#215=ORIENTED_EDGE($,*,*,#173,.F.);
#216=ORIENTED_EDGE($,*,*,#174,.T.);
#217=ORIENTED_EDGE($,*,*,#175,.F.);
#218=ORIENTED_EDGE($,*,*,#176,.F.);
#219=ORIENTED_EDGE($,*,*,#177,.F.);
#220=ORIENTED_EDGE($,*,*,#178,.F.);
#221=ORIENTED_EDGE($,*,*,#179,.F.);
#222=ORIENTED_EDGE($,*,*,#180,.F.);
#223=ORIENTED_EDGE($,*,*,#181,.F.);
#224=ORIENTED_EDGE($,*,*,#182,.F.);
#225=ORIENTED_EDGE($,*,*,#175,.T.);
#226=ORIENTED_EDGE($,*,*,#183,.F.);
#227=ORIENTED_EDGE($,*,*,#164,.T.);
#228=ORIENTED_EDGE($,*,*,#184,.T.);
#229=ORIENTED_EDGE($,*,*,#180,.T.);
#230=ORIENTED_EDGE($,*,*,#185,.T.);
#231=ORIENTED_EDGE($,*,*,#169,.F.);
#232=ORIENTED_EDGE($,*,*,#186,.F.);
#233=ORIENTED_EDGE($,*,*,#182,.T.);
#234=ORIENTED_EDGE($,*,*,#173,.T.);
#235=ORIENTED_EDGE($,*,*,#178,.T.);
#236=ORIENTED_EDGE($,*,*,#187,.F.);
#237=ORIENTED_EDGE($,*,*,#161,.T.);
#238=ORIENTED_EDGE($,*,*,#183,.T.);
#239=ORIENTED_EDGE($,*,*,#179,.T.);
#240=ORIENTED_EDGE($,*,*,#172,.F.);
#241=ORIENTED_EDGE($,*,*,#159,.F.);
#242=ORIENTED_EDGE($,*,*,#170,.F.);
#243=ORIENTED_EDGE($,*,*,#185,.F.);
#244=ORIENTED_EDGE($,*,*,#181,.T.);
#245=ORIENTED_EDGE($,*,*,#186,.T.);
#246=ORIENTED_EDGE($,*,*,#171,.T.);
#247=ORIENTED_EDGE($,*,*,#157,.F.);
#248=ORIENTED_EDGE($,*,*,#174,.F.);
#249=ORIENTED_EDGE($,*,*,#177,.T.);
#250=ORIENTED_EDGE($,*,*,#188,.F.);
#251=ORIENTED_EDGE($,*,*,#162,.T.);
#252=ORIENTED_EDGE($,*,*,#187,.T.);
#253=ORIENTED_EDGE($,*,*,#176,.T.);
#254=ORIENTED_EDGE($,*,*,#184,.F.);
#255=ORIENTED_EDGE($,*,*,#163,.T.);
#256=ORIENTED_EDGE($,*,*,#188,.T.);
#257=ORIENTED_EDGE($,*,*,#189,.F.);
#258=ORIENTED_EDGE($,*,*,#190,.F.);
#259=ORIENTED_EDGE($,*,*,#191,.F.);
#260=ORIENTED_EDGE($,*,*,#192,.F.);
#261=ORIENTED_EDGE($,*,*,#193,.F.);
#262=ORIENTED_EDGE($,*,*,#168,.T.);
#263=ORIENTED_EDGE($,*,*,#194,.T.);
#264=ORIENTED_EDGE($,*,*,#190,.T.);
#265=ORIENTED_EDGE($,*,*,#189,.T.);
#266=ORIENTED_EDGE($,*,*,#195,.F.);
#267=ORIENTED_EDGE($,*,*,#165,.T.);
#268=ORIENTED_EDGE($,*,*,#193,.T.);
#269=ORIENTED_EDGE($,*,*,#196,.F.);
#270=ORIENTED_EDGE($,*,*,#166,.T.);
#271=ORIENTED_EDGE($,*,*,#195,.T.);
#272=ORIENTED_EDGE($,*,*,#192,.T.);
#273=ORIENTED_EDGE($,*,*,#194,.F.);
#274=ORIENTED_EDGE($,*,*,#167,.T.);
#275=ORIENTED_EDGE($,*,*,#196,.T.);
#276=ORIENTED_EDGE($,*,*,#191,.T.);
#277=PLANE($,#313);
#278=PLANE($,#314);
#279=PLANE($,#315);
#280=PLANE($,#316);
#281=PLANE($,#322);
#282=PLANE($,#323);
#283=PLANE($,#324);
#284=PLANE($,#325);
#285=PLANE($,#326);
#286=PLANE($,#327);
#287=PLANE($,#328);
#288=PLANE($,#329);
#289=PLANE($,#330);
#290=PLANE($,#331);
#291=PLANE($,#332);
#292=PLANE($,#333);
#293=ADVANCED_FACE($,(#24),#277,.T.);
#294=ADVANCED_FACE($,(#25,#23),#278,.F.);
#295=ADVANCED_FACE($,(#26),#279,.T.);
#296=ADVANCED_FACE($,(#27),#280,.T.);
#297=ADVANCED_FACE($,(#28),#22,.T.);
#298=ADVANCED_FACE($,(#29),#281,.T.);
#299=ADVANCED_FACE($,(#30),#282,.F.);
#300=ADVANCED_FACE($,(#31),#283,.T.);
#301=ADVANCED_FACE($,(#32),#284,.F.);
#302=ADVANCED_FACE($,(#33),#285,.F.);
#303=ADVANCED_FACE($,(#34),#286,.T.);
#304=ADVANCED_FACE($,(#35),#287,.T.);
#305=ADVANCED_FACE($,(#36),#288,.T.);
#306=ADVANCED_FACE($,(#37),#289,.T.);
#307=ADVANCED_FACE($,(#38),#290,.T.);
#308=ADVANCED_FACE($,(#39),#291,.T.);
#309=ADVANCED_FACE($,(#40),#292,.T.);
#310=CLOSED_SHELL($,(#293,#294,#295,#296,#297,#298,#299,#300,#301,#302,
#303,#304,#305,#306,#307,#308,#309));
#311=MANIFOLD_SOLID_BREP('11E0A',#310);
#312=AXIS2_PLACEMENT_3D('placement',#414,#334,#335);
#313=AXIS2_PLACEMENT_3D($,#415,#336,#337);
#314=AXIS2_PLACEMENT_3D($,#424,#342,#343);
#315=AXIS2_PLACEMENT_3D($,#441,#352,#353);
#316=AXIS2_PLACEMENT_3D($,#447,#357,#358);
#317=AXIS2_PLACEMENT_3D($,#453,#362,#363);
#318=AXIS2_PLACEMENT_3D($,#456,#364,#365);
#319=AXIS2_PLACEMENT_3D($,#460,#367,#368);
#320=AXIS2_PLACEMENT_3D($,#463,#370,#371);
#321=AXIS2_PLACEMENT_3D($,#466,#373,#374);
#322=AXIS2_PLACEMENT_3D($,#468,#376,#377);
#323=AXIS2_PLACEMENT_3D($,#471,#380,#381);
#324=AXIS2_PLACEMENT_3D($,#474,#384,#385);
#325=AXIS2_PLACEMENT_3D($,#476,#387,#388);
#326=AXIS2_PLACEMENT_3D($,#477,#389,#390);
#327=AXIS2_PLACEMENT_3D($,#478,#391,#392);
#328=AXIS2_PLACEMENT_3D($,#480,#394,#395);
#329=AXIS2_PLACEMENT_3D($,#481,#396,#397);
#330=AXIS2_PLACEMENT_3D($,#490,#402,#403);
#331=AXIS2_PLACEMENT_3D($,#493,#406,#407);
#332=AXIS2_PLACEMENT_3D($,#495,#409,#410);
#333=AXIS2_PLACEMENT_3D($,#497,#412,#413);
#334=DIRECTION('axis',(0.,0.,1.));
#335=DIRECTION('refdir',(1.,0.,0.));
#336=DIRECTION('center_axis',(-8.23291858009543E-17,1.,6.36306927546357E-15));
#337=DIRECTION('ref_axis',(0.,-7.105427357601E-15,1.));
#338=DIRECTION($,(-6.27085734414937E-32,5.30255772955297E-16,-1.));
#339=DIRECTION($,(-1.,-7.15147588525239E-17,2.4787459708437E-32));
#340=DIRECTION($,(9.03003457557513E-31,-7.6356831305563E-15,1.));
#341=DIRECTION($,(-1.,-8.23291858009543E-17,2.64997513330331E-32));
#342=DIRECTION('center_axis',(0.,0.,1.));
#343=DIRECTION('ref_axis',(1.,0.,0.));
#344=DIRECTION($,(1.,0.,0.));
#345=DIRECTION($,(9.25185853854297E-17,-1.,0.));
#346=DIRECTION($,(-1.,-1.85037170770859E-16,0.));
#347=DIRECTION($,(0.,1.,0.));
#348=DIRECTION($,(0.,1.,0.));
#349=DIRECTION($,(-1.,0.,0.));
#350=DIRECTION($,(0.,-1.,0.));
#351=DIRECTION($,(1.,0.,0.));
#352=DIRECTION('center_axis',(-5.65667768839744E-31,-1.49974300001009E-47,
1.));
#353=DIRECTION('ref_axis',(1.,0.,0.));
#354=DIRECTION($,(-1.,-8.0153802109542E-64,2.64997513330331E-32));
#355=DIRECTION($,(1.77635683940025E-16,-1.,-3.02470016047384E-32));
#356=DIRECTION($,(1.34572487833352E-16,-1.,0.));
#357=DIRECTION('center_axis',(2.64997513330331E-32,-3.02470016047384E-32,
1.));
#358=DIRECTION('ref_axis',(1.,0.,0.));
#359=DIRECTION($,(4.13106241720988E-16,-1.,0.));
#360=DIRECTION($,(-1.,0.,2.64997513330331E-32));
#361=DIRECTION($,(0.,1.,0.));
#362=DIRECTION('center_axis',(1.,9.22872889219661E-17,0.));
#363=DIRECTION('ref_axis',(1.90201368323503E-17,-0.206097037355088,0.978531558608845));
#364=DIRECTION('center_axis',(1.,0.,0.));
#365=DIRECTION('ref_axis',(1.90201368323503E-17,-0.206097037355088,0.978531558608845));
#366=DIRECTION($,(1.,9.22872889219661E-17,0.));
#367=DIRECTION('center_axis',(-1.,-9.25185853854297E-17,0.));
#368=DIRECTION('ref_axis',(1.90201368323503E-17,-0.206097037355088,0.978531558608845));
#369=DIRECTION($,(-1.,-9.22872889219661E-17,0.));
#370=DIRECTION('center_axis',(1.,4.13106241720988E-16,0.));
#371=DIRECTION('ref_axis',(1.90201368323503E-17,-0.206097037355088,0.978531558608845));
#372=DIRECTION($,(-1.,-9.22872889219661E-17,0.));
#373=DIRECTION('center_axis',(-1.,0.,0.));
#374=DIRECTION('ref_axis',(1.90201368323503E-17,-0.206097037355088,0.978531558608845));
#375=DIRECTION($,(-1.,-9.22872889219661E-17,0.));
#376=DIRECTION('center_axis',(1.,0.,0.));
#377=DIRECTION('ref_axis',(0.,0.,-1.));
#378=DIRECTION($,(0.,0.,1.));
#379=DIRECTION($,(0.,0.,1.));
#380=DIRECTION('center_axis',(-2.3373116307898E-16,1.,0.));
#381=DIRECTION('ref_axis',(0.,0.,1.));
#382=DIRECTION($,(0.,0.,-1.));
#383=DIRECTION($,(0.,0.,-1.));
#384=DIRECTION('center_axis',(0.,-1.,0.));
#385=DIRECTION('ref_axis',(0.,0.,-1.));
#386=DIRECTION($,(0.,0.,1.));
#387=DIRECTION('center_axis',(-1.,-4.13106241720988E-16,0.));
#388=DIRECTION('ref_axis',(0.,0.,1.));
#389=DIRECTION('center_axis',(1.,0.,0.));
#390=DIRECTION('ref_axis',(0.,0.,-1.));
#391=DIRECTION('center_axis',(-1.,-9.25185853854297E-17,0.));
#392=DIRECTION('ref_axis',(0.,0.,1.));
#393=DIRECTION($,(0.,0.,1.));
#394=DIRECTION('center_axis',(-1.85037170770859E-16,1.,0.));
#395=DIRECTION('ref_axis',(0.,0.,1.));
#396=DIRECTION('center_axis',(0.,0.,-1.));
#397=DIRECTION('ref_axis',(1.,0.,0.));
#398=DIRECTION($,(0.,-1.,0.));
#399=DIRECTION($,(-1.,0.,0.));
#400=DIRECTION($,(0.,1.,0.));
#401=DIRECTION($,(1.,0.,0.));
#402=DIRECTION('center_axis',(0.,1.,0.));
#403=DIRECTION('ref_axis',(0.,0.,1.));
#404=DIRECTION($,(0.,0.,-1.));
#405=DIRECTION($,(0.,0.,-1.));
#406=DIRECTION('center_axis',(-1.,0.,0.));
#407=DIRECTION('ref_axis',(0.,0.,-1.));
#408=DIRECTION($,(0.,0.,-1.));
#409=DIRECTION('center_axis',(0.,-1.,0.));
#410=DIRECTION('ref_axis',(0.,0.,-1.));
#411=DIRECTION($,(0.,0.,-1.));
#412=DIRECTION('center_axis',(1.,0.,0.));
#413=DIRECTION('ref_axis',(0.,0.,1.));
#414=CARTESIAN_POINT('',(0.,0.,0.));
#415=CARTESIAN_POINT('Origin',(43.,-26.,37.75));
#416=CARTESIAN_POINT('',(81.,-26.,38.));
#417=CARTESIAN_POINT('',(81.,-26.,37.5));
#418=CARTESIAN_POINT($,(81.,-26.,38.));
#419=CARTESIAN_POINT('',(4.99999999999999,-26.,37.5));
#420=CARTESIAN_POINT($,(81.,-26.,37.5));
#421=CARTESIAN_POINT('',(4.99999999999999,-26.,38.));
#422=CARTESIAN_POINT($,(4.99999999999999,-26.,37.5));
#423=CARTESIAN_POINT($,(43.,-26.,38.));
#424=CARTESIAN_POINT('Origin',(43.,-2.8421709430404E-14,24.));
#425=CARTESIAN_POINT('',(-4.99999999999999,-48.,24.));
#426=CARTESIAN_POINT('',(91.,-48.,24.));
#427=CARTESIAN_POINT($,(-4.99999999999999,-48.,24.));
#428=CARTESIAN_POINT('',(-5.00000000000001,48.,24.));
#429=CARTESIAN_POINT($,(-5.00000000000001,48.,24.));
#430=CARTESIAN_POINT('',(91.,48.,24.));
#431=CARTESIAN_POINT($,(91.,48.,24.));
#432=CARTESIAN_POINT($,(91.,-48.,24.));
#433=CARTESIAN_POINT('',(0.,-45.4,24.));
#434=CARTESIAN_POINT('',(0.,45.4,24.));
#435=CARTESIAN_POINT($,(0.,0.,24.));
#436=CARTESIAN_POINT('',(90.8,-45.4,24.));
#437=CARTESIAN_POINT($,(45.4,-45.4,24.));
#438=CARTESIAN_POINT('',(90.8,45.4,24.));
#439=CARTESIAN_POINT($,(90.8,0.,24.));
#440=CARTESIAN_POINT($,(45.4,45.4,24.));
#441=CARTESIAN_POINT('Origin',(43.,13.,37.5));
#442=CARTESIAN_POINT('',(81.,38.,37.5));
#443=CARTESIAN_POINT('',(4.99999999999999,38.,37.5));
#444=CARTESIAN_POINT($,(81.,38.,37.5));
#445=CARTESIAN_POINT($,(4.99999999999999,38.,37.5));
#446=CARTESIAN_POINT($,(81.,-12.,37.5));
#447=CARTESIAN_POINT('Origin',(43.,-5.,38.));
#448=CARTESIAN_POINT('',(5.00000000000002,-48.,38.));
#449=CARTESIAN_POINT($,(4.99999999999999,38.,38.));
#450=CARTESIAN_POINT('',(81.,-48.,38.));
#451=CARTESIAN_POINT($,(67.,-48.,38.));
#452=CARTESIAN_POINT($,(81.,-48.,38.));
#453=CARTESIAN_POINT('Origin',(-4.99999999999999,-5.6843418860808E-14,-189.9));
#454=CARTESIAN_POINT('',(91.,48.,38.));
#455=CARTESIAN_POINT('',(91.,-48.,38.));
#456=CARTESIAN_POINT('Origin',(91.,-2.8421709430404E-14,-189.9));
#457=CARTESIAN_POINT('',(-5.00000000000001,48.,38.));
#458=CARTESIAN_POINT($,(-4.99999999999999,48.,38.));
#459=CARTESIAN_POINT('',(-4.99999999999999,-48.0000000000001,38.));
#460=CARTESIAN_POINT('Origin',(-4.99999999999999,-5.6843418860808E-14,-189.9));
#461=CARTESIAN_POINT($,(-4.99999999999999,-48.,38.));
#462=CARTESIAN_POINT('',(4.99999999999999,38.,39.8790460420619));
#463=CARTESIAN_POINT('Origin',(4.99999999999999,-5.6843418860808E-14,-189.9));
#464=CARTESIAN_POINT('',(81.,38.,39.8790460420619));
#465=CARTESIAN_POINT($,(-4.99999999999999,38.,39.8790460420619));
#466=CARTESIAN_POINT('Origin',(81.,-2.8421709430404E-14,-189.9));
#467=CARTESIAN_POINT($,(-4.99999999999999,-48.,38.));
#468=CARTESIAN_POINT('Origin',(91.,48.,24.));
#469=CARTESIAN_POINT($,(91.,-48.,24.));
#470=CARTESIAN_POINT($,(91.,48.,24.));
#471=CARTESIAN_POINT('Origin',(81.,38.,43.));
#472=CARTESIAN_POINT($,(4.99999999999999,38.,43.));
#473=CARTESIAN_POINT($,(81.,38.,43.));
#474=CARTESIAN_POINT('Origin',(91.,-48.,24.));
#475=CARTESIAN_POINT($,(-4.99999999999999,-48.,24.));
#476=CARTESIAN_POINT('Origin',(4.99999999999999,38.,43.));
#477=CARTESIAN_POINT('Origin',(81.,-48.,43.));
#478=CARTESIAN_POINT('Origin',(-4.99999999999999,-48.,24.));
#479=CARTESIAN_POINT($,(-5.00000000000001,48.,24.));
#480=CARTESIAN_POINT('Origin',(-5.00000000000001,48.,24.));
#481=CARTESIAN_POINT('Origin',(45.4,0.,0.));
#482=CARTESIAN_POINT('',(0.,45.4,0.));
#483=CARTESIAN_POINT('',(0.,-45.4,0.));
#484=CARTESIAN_POINT($,(0.,0.,0.));
#485=CARTESIAN_POINT('',(90.8,45.4,0.));
#486=CARTESIAN_POINT($,(45.4,45.4,0.));
#487=CARTESIAN_POINT('',(90.8,-45.4,0.));
#488=CARTESIAN_POINT($,(90.8,0.,0.));
#489=CARTESIAN_POINT($,(45.4,-45.4,0.));
#490=CARTESIAN_POINT('Origin',(45.4,45.4,12.));
#491=CARTESIAN_POINT($,(0.,45.4,12.));
#492=CARTESIAN_POINT($,(90.8,45.4,12.));
#493=CARTESIAN_POINT('Origin',(0.,0.,12.));
#494=CARTESIAN_POINT($,(0.,-45.4,12.));
#495=CARTESIAN_POINT('Origin',(45.4,-45.4,12.));
#496=CARTESIAN_POINT($,(90.8,-45.4,12.));
#497=CARTESIAN_POINT('Origin',(90.8,0.,12.));
#498=UNCERTAINTY_MEASURE_WITH_UNIT(LENGTH_MEASURE(0.01),#502,
'DISTANCE_ACCURACY_VALUE',
'Maximum model space distance between geometric entities at asserted c
onnectivities');
#499=UNCERTAINTY_MEASURE_WITH_UNIT(LENGTH_MEASURE(1.E-6),#502,
'DISTANCE_ACCURACY_VALUE',
'Maximum model space distance between geometric entities at asserted c
onnectivities');
#500=(
GEOMETRIC_REPRESENTATION_CONTEXT(3)
GLOBAL_UNCERTAINTY_ASSIGNED_CONTEXT((#498))
GLOBAL_UNIT_ASSIGNED_CONTEXT((#502,#504,#503))
REPRESENTATION_CONTEXT('','3D')
);
#501=(
GEOMETRIC_REPRESENTATION_CONTEXT(3)
GLOBAL_UNCERTAINTY_ASSIGNED_CONTEXT((#499))
GLOBAL_UNIT_ASSIGNED_CONTEXT((#502,#12,#503))
REPRESENTATION_CONTEXT('','3D')
);
#502=(
LENGTH_UNIT()
NAMED_UNIT(*)
SI_UNIT(.MILLI.,.METRE.)
);
#503=(
NAMED_UNIT(*)
SI_UNIT($,.STERADIAN.)
SOLID_ANGLE_UNIT()
);
#504=(
NAMED_UNIT(*)
PLANE_ANGLE_UNIT()
SI_UNIT($,.RADIAN.)
);
#505=SHAPE_DEFINITION_REPRESENTATION(#506,#507);
#506=PRODUCT_DEFINITION_SHAPE('',$,#509);
#507=SHAPE_REPRESENTATION('',(#312),#500);
#508=PRODUCT_DEFINITION_CONTEXT('part definition',#513,'design');
#509=PRODUCT_DEFINITION('Product','Product',#510,#508);
#510=PRODUCT_DEFINITION_FORMATION('',$,#515);
#511=PRODUCT_RELATED_PRODUCT_CATEGORY('Product','Product',(#515));
#512=APPLICATION_PROTOCOL_DEFINITION('international standard',
'automotive_design',2009,#513);
#513=APPLICATION_CONTEXT(
'Core Data for Automotive Mechanical Design Process');
#514=PRODUCT_CONTEXT('part definition',#513,'mechanical');
#515=PRODUCT('Product','Product',$,(#514));
#516=PRESENTATION_STYLE_ASSIGNMENT((#517));
#517=SURFACE_STYLE_USAGE(.BOTH.,#518);
#518=SURFACE_SIDE_STYLE($,(#519));
#519=SURFACE_STYLE_FILL_AREA(#520);
#520=FILL_AREA_STYLE($,(#521));
#521=FILL_AREA_STYLE_COLOUR($,#522);
#522=COLOUR_RGB('',1.,1.,1.);
ENDSEC;
END-ISO-10303-21;
