ISO-10303-21;
HEADER;
/****************************************************************
 * Generated by software with PDElib inside                    *
 * PDElib Version v51a, created Fri 09/10/2010                  *
 * ITI Transcendata (http://www.transcendata.com/)              *
 ****************************************************************/
FILE_DESCRIPTION((''),'2;1');
FILE_NAME('3d_DMG900.stp','2012-10-10T13:55:35',(''),(''),'Mechanical Desktop 2011','Mechanical Desktop 2011',', , ');
FILE_SCHEMA(('CONFIG_CONTROL_DESIGN'));
ENDSEC;
DATA;
#10=(NAMED_UNIT(*)PLANE_ANGLE_UNIT()SI_UNIT($,.RADIAN.));
#11=DIMENSIONAL_EXPONENTS(0.0,0.0,0.0,0.0,0.0,0.0,0.0);
#12=PLANE_ANGLE_MEASURE_WITH_UNIT(PLANE_ANGLE_MEASURE(0.0174532925),#10);
#16=(CONVERSION_BASED_UNIT('DEGREE',#12)NAMED_UNIT(#11)PLANE_ANGLE_UNIT());
#20=(NAMED_UNIT(*)SI_UNIT($,.STERADIAN.)SOLID_ANGLE_UNIT());
#24=(LENGTH_UNIT()NAMED_UNIT(*)SI_UNIT(.MILLI.,.METRE.));
#26=UNCERTAINTY_MEASURE_WITH_UNIT(LENGTH_MEASURE(0.000001),#24,'DISTANCE_ACCURACY_VALUE','');
#28=(GEOMETRIC_REPRESENTATION_CONTEXT(3)GLOBAL_UNCERTAINTY_ASSIGNED_CONTEXT((#26))GLOBAL_UNIT_ASSIGNED_CONTEXT((#16,#20,#24))REPRESENTATION_CONTEXT('','3D'));
#29=APPLICATION_CONTEXT('CONFIGURATION CONTROLLED 3D DESIGNS OF MECHANICAL PARTS AND ASSEMBLIES');
#30=APPLICATION_PROTOCOL_DEFINITION('INTERNATIONAL STANDARD','config_control_design',1995,#29);
#31=MECHANICAL_CONTEXT('3D Mechanical Parts',#29,'mechanical');
#32=PRODUCT('Product','Product',' ',(#31));
#33=PRODUCT_RELATED_PRODUCT_CATEGORY('detail',$,(#32));
#34=PRODUCT_CATEGORY('part',$);
#35=PRODUCT_CATEGORY_RELATIONSHIP('None','None',#34,#33);
#36=PERSON('1','Design','Joe',$,$,$);
#37=ORGANIZATION($,'None','None');
#38=PERSON_AND_ORGANIZATION(#36,#37);
#39=PERSON_AND_ORGANIZATION_ROLE('design_owner');
#40=CC_DESIGN_PERSON_AND_ORGANIZATION_ASSIGNMENT(#38,#39,(#32));
#41=PRODUCT_DEFINITION_FORMATION_WITH_SPECIFIED_SOURCE('None','None',#32,.BOUGHT.);
#42=PERSON('2','Creator','Joe',$,$,$);
#43=ORGANIZATION($,'None','None');
#44=PERSON_AND_ORGANIZATION(#42,#43);
#45=PERSON_AND_ORGANIZATION_ROLE('creator');
#46=CC_DESIGN_PERSON_AND_ORGANIZATION_ASSIGNMENT(#44,#45,(#41));
#47=PERSON('3','Supplier','Joe',$,$,$);
#48=ORGANIZATION($,'None','None');
#49=PERSON_AND_ORGANIZATION(#47,#48);
#50=PERSON_AND_ORGANIZATION_ROLE('design_supplier');
#51=CC_DESIGN_PERSON_AND_ORGANIZATION_ASSIGNMENT(#49,#50,(#41));
#52=APPROVAL_STATUS('approved');
#53=APPROVAL(#52,'None');
#54=PERSON('4','Approver','Joe',$,$,$);
#55=ORGANIZATION($,'None','None');
#56=PERSON_AND_ORGANIZATION(#54,#55);
#57=APPROVAL_ROLE('approver');
#58=APPROVAL_PERSON_ORGANIZATION(#56,#53,#57);
#59=COORDINATED_UNIVERSAL_TIME_OFFSET(8,$,.EXACT.);
#60=CALENDAR_DATE(1996,29,5);
#61=LOCAL_TIME(12,0,0.0,#59);
#62=DATE_AND_TIME(#60,#61);
#63=APPROVAL_DATE_TIME(#62,#53);
#64=CC_DESIGN_APPROVAL(#53,(#41));
#65=SECURITY_CLASSIFICATION_LEVEL('unclassified');
#66=SECURITY_CLASSIFICATION('security','None',#65);
#67=CC_DESIGN_SECURITY_CLASSIFICATION(#66,(#41));
#68=APPROVAL_STATUS('approved');
#69=APPROVAL(#68,'None');
#70=PERSON('5','Approver','Joe',$,$,$);
#71=ORGANIZATION($,'None','None');
#72=PERSON_AND_ORGANIZATION(#70,#71);
#73=APPROVAL_ROLE('approver');
#74=APPROVAL_PERSON_ORGANIZATION(#72,#69,#73);
#75=COORDINATED_UNIVERSAL_TIME_OFFSET(8,$,.EXACT.);
#76=CALENDAR_DATE(1996,29,5);
#77=LOCAL_TIME(12,0,0.0,#75);
#78=DATE_AND_TIME(#76,#77);
#79=APPROVAL_DATE_TIME(#78,#69);
#80=CC_DESIGN_APPROVAL(#69,(#66));
#81=PERSON('6','Classifier','Joe',$,$,$);
#82=ORGANIZATION($,'None','None');
#83=PERSON_AND_ORGANIZATION(#81,#82);
#84=PERSON_AND_ORGANIZATION_ROLE('classification_officer');
#85=CC_DESIGN_PERSON_AND_ORGANIZATION_ASSIGNMENT(#83,#84,(#66));
#86=COORDINATED_UNIVERSAL_TIME_OFFSET(8,$,.EXACT.);
#87=CALENDAR_DATE(1996,29,5);
#88=LOCAL_TIME(12,0,0.0,#86);
#89=DATE_AND_TIME(#87,#88);
#90=DATE_TIME_ROLE('classification_date');
#91=CC_DESIGN_DATE_AND_TIME_ASSIGNMENT(#89,#90,(#66));
#92=DESIGN_CONTEXT('Design Context',#29,'design');
#93=PRODUCT_DEFINITION('None','None',#41,#92);
#94=PERSON('7','Creator','Joe',$,$,$);
#95=ORGANIZATION($,'None','None');
#96=PERSON_AND_ORGANIZATION(#94,#95);
#97=PERSON_AND_ORGANIZATION_ROLE('creator');
#98=CC_DESIGN_PERSON_AND_ORGANIZATION_ASSIGNMENT(#96,#97,(#93));
#99=COORDINATED_UNIVERSAL_TIME_OFFSET(8,$,.EXACT.);
#100=CALENDAR_DATE(1996,29,5);
#101=LOCAL_TIME(12,0,0.0,#99);
#102=DATE_AND_TIME(#100,#101);
#103=DATE_TIME_ROLE('creation_date');
#104=CC_DESIGN_DATE_AND_TIME_ASSIGNMENT(#102,#103,(#93));
#105=APPROVAL_STATUS('approved');
#106=APPROVAL(#105,'None');
#107=PERSON('8','Approver','Joe',$,$,$);
#108=ORGANIZATION($,'None','None');
#109=PERSON_AND_ORGANIZATION(#107,#108);
#110=APPROVAL_ROLE('approver');
#111=APPROVAL_PERSON_ORGANIZATION(#109,#106,#110);
#112=COORDINATED_UNIVERSAL_TIME_OFFSET(8,$,.EXACT.);
#113=CALENDAR_DATE(1996,29,5);
#114=LOCAL_TIME(12,0,0.0,#112);
#115=DATE_AND_TIME(#113,#114);
#116=APPROVAL_DATE_TIME(#115,#106);
#117=CC_DESIGN_APPROVAL(#106,(#93));
#118=CARTESIAN_POINT('NONE',(0.0,0.0,0.0));
#119=DIRECTION('NONE',(0.0,0.0,1.0));
#120=DIRECTION('NONE',(1.0,0.0,0.0));
#121=AXIS2_PLACEMENT_3D('NONE',#118,#119,#120);
#122=SHAPE_REPRESENTATION('SR1',(#121),#28);
#123=PRODUCT_DEFINITION_SHAPE('PDS1','Test Part',#93);
#124=SHAPE_DEFINITION_REPRESENTATION(#123,#122);
#125=CARTESIAN_POINT('',(43.000000000000007,-26.0,37.74999999999995));
#126=DIRECTION('',(0.0,1.0,0.0));
#127=DIRECTION('',(0.0,0.0,1.0));
#128=AXIS2_PLACEMENT_3D('',#125,#126,#127);
#129=PLANE('',#128);
#130=CARTESIAN_POINT('',(81.000000000000028,-26.0,37.99999999999995));
#131=VERTEX_POINT('',#130);
#132=CARTESIAN_POINT('',(81.000000000000028,-25.999999999999993,37.49999999999995));
#133=VERTEX_POINT('',#132);
#134=CARTESIAN_POINT('',(81.000000000000028,-25.999999999999996,37.99999999999995));
#135=DIRECTION('',(0.0,0.0,-1.0));
#136=VECTOR('',#135,0.5);
#137=LINE('',#134,#136);
#138=EDGE_CURVE('',#131,#133,#137,.T.);
#139=ORIENTED_EDGE('',*,*,#138,.T.);
#140=CARTESIAN_POINT('',(4.999999999999989,-26.0,37.49999999999995));
#141=VERTEX_POINT('',#140);
#142=CARTESIAN_POINT('',(81.000000000000028,-25.999999999999996,37.49999999999995));
#143=DIRECTION('',(-1.0,0.0,0.0));
#144=VECTOR('',#143,76.000000000000043);
#145=LINE('',#142,#144);
#146=EDGE_CURVE('',#133,#141,#145,.T.);
#147=ORIENTED_EDGE('',*,*,#146,.T.);
#148=CARTESIAN_POINT('',(4.999999999999989,-26.000000000000007,37.99999999999995));
#149=VERTEX_POINT('',#148);
#150=CARTESIAN_POINT('',(4.999999999999989,-26.0,37.49999999999995));
#151=DIRECTION('',(0.0,0.0,1.0));
#152=VECTOR('',#151,0.5);
#153=LINE('',#150,#152);
#154=EDGE_CURVE('',#141,#149,#153,.T.);
#155=ORIENTED_EDGE('',*,*,#154,.T.);
#156=CARTESIAN_POINT('',(81.000000000000028,-25.999999999999996,38.0));
#157=DIRECTION('',(-1.0,0.0,0.0));
#158=VECTOR('',#157,76.000000000000043);
#159=LINE('',#156,#158);
#160=EDGE_CURVE('',#131,#149,#159,.T.);
#161=ORIENTED_EDGE('',*,*,#160,.F.);
#162=EDGE_LOOP('',(#139,#147,#155,#161));
#163=FACE_OUTER_BOUND('',#162,.T.);
#164=ADVANCED_FACE('',(#163),#129,.T.);
#165=CARTESIAN_POINT('',(43.000000000000007,-2.842171E-014,24.0));
#166=DIRECTION('',(0.0,0.0,1.0));
#167=DIRECTION('',(1.0,0.0,0.0));
#168=AXIS2_PLACEMENT_3D('',#165,#166,#167);
#169=PLANE('',#168);
#170=CARTESIAN_POINT('',(-4.999999999999993,-48.0,24.0));
#171=VERTEX_POINT('',#170);
#172=CARTESIAN_POINT('',(91.000000000000028,-48.0,24.0));
#173=VERTEX_POINT('',#172);
#174=CARTESIAN_POINT('',(-4.999999999999993,-48.0,24.0));
#175=DIRECTION('',(1.0,0.0,0.0));
#176=VECTOR('',#175,96.000000000000028);
#177=LINE('',#174,#176);
#178=EDGE_CURVE('',#171,#173,#177,.T.);
#179=ORIENTED_EDGE('',*,*,#178,.F.);
#180=CARTESIAN_POINT('',(-5.000000000000007,47.999999999999972,24.0));
#181=VERTEX_POINT('',#180);
#182=CARTESIAN_POINT('',(-5.000000000000007,47.999999999999972,24.0));
#183=DIRECTION('',(0.0,-1.0,0.0));
#184=VECTOR('',#183,95.999999999999972);
#185=LINE('',#182,#184);
#186=EDGE_CURVE('',#181,#171,#185,.T.);
#187=ORIENTED_EDGE('',*,*,#186,.F.);
#188=CARTESIAN_POINT('',(91.000000000000028,48.0,24.0));
#189=VERTEX_POINT('',#188);
#190=CARTESIAN_POINT('',(91.000000000000028,48.0,24.0));
#191=DIRECTION('',(-1.0,0.0,0.0));
#192=VECTOR('',#191,96.000000000000028);
#193=LINE('',#190,#192);
#194=EDGE_CURVE('',#189,#181,#193,.T.);
#195=ORIENTED_EDGE('',*,*,#194,.F.);
#196=CARTESIAN_POINT('',(91.000000000000028,-48.0,24.0));
#197=DIRECTION('',(0.0,1.0,0.0));
#198=VECTOR('',#197,96.0);
#199=LINE('',#196,#198);
#200=EDGE_CURVE('',#173,#189,#199,.T.);
#201=ORIENTED_EDGE('',*,*,#200,.F.);
#202=EDGE_LOOP('',(#179,#187,#195,#201));
#203=FACE_OUTER_BOUND('',#202,.T.);
#204=CARTESIAN_POINT('',(0.0,-45.400000000000006,24.0));
#205=VERTEX_POINT('',#204);
#206=CARTESIAN_POINT('',(0.0,45.400000000000006,24.0));
#207=VERTEX_POINT('',#206);
#208=CARTESIAN_POINT('',(0.0,-45.400000000000006,24.0));
#209=DIRECTION('',(0.0,1.0,0.0));
#210=VECTOR('',#209,90.800000000000011);
#211=LINE('',#208,#210);
#212=EDGE_CURVE('',#205,#207,#211,.T.);
#213=ORIENTED_EDGE('',*,*,#212,.F.);
#214=CARTESIAN_POINT('',(90.799999999999997,-45.400000000000006,24.0));
#215=VERTEX_POINT('',#214);
#216=CARTESIAN_POINT('',(90.799999999999997,-45.400000000000006,24.0));
#217=DIRECTION('',(-1.0,0.0,0.0));
#218=VECTOR('',#217,90.799999999999997);
#219=LINE('',#216,#218);
#220=EDGE_CURVE('',#215,#205,#219,.T.);
#221=ORIENTED_EDGE('',*,*,#220,.F.);
#222=CARTESIAN_POINT('',(90.799999999999997,45.400000000000006,24.0));
#223=VERTEX_POINT('',#222);
#224=CARTESIAN_POINT('',(90.799999999999997,45.400000000000006,24.0));
#225=DIRECTION('',(0.0,-1.0,0.0));
#226=VECTOR('',#225,90.800000000000011);
#227=LINE('',#224,#226);
#228=EDGE_CURVE('',#223,#215,#227,.T.);
#229=ORIENTED_EDGE('',*,*,#228,.F.);
#230=CARTESIAN_POINT('',(0.0,45.400000000000006,24.0));
#231=DIRECTION('',(1.0,0.0,0.0));
#232=VECTOR('',#231,90.799999999999997);
#233=LINE('',#230,#232);
#234=EDGE_CURVE('',#207,#223,#233,.T.);
#235=ORIENTED_EDGE('',*,*,#234,.F.);
#236=EDGE_LOOP('',(#213,#221,#229,#235));
#237=FACE_BOUND('',#236,.T.);
#238=ADVANCED_FACE('',(#203,#237),#169,.F.);
#239=CARTESIAN_POINT('',(43.000000000000007,13.0,37.5));
#240=DIRECTION('',(0.0,0.0,1.0));
#241=DIRECTION('',(1.0,0.0,0.0));
#242=AXIS2_PLACEMENT_3D('',#239,#240,#241);
#243=PLANE('',#242);
#244=CARTESIAN_POINT('',(81.000000000000028,38.0,37.5));
#245=VERTEX_POINT('',#244);
#246=CARTESIAN_POINT('',(4.999999999999993,38.0,37.5));
#247=VERTEX_POINT('',#246);
#248=CARTESIAN_POINT('',(81.000000000000028,38.0,37.5));
#249=DIRECTION('',(-1.0,0.0,0.0));
#250=VECTOR('',#249,76.000000000000028);
#251=LINE('',#248,#250);
#252=EDGE_CURVE('',#245,#247,#251,.T.);
#253=ORIENTED_EDGE('',*,*,#252,.T.);
#254=CARTESIAN_POINT('',(4.999999999999993,38.0,37.5));
#255=DIRECTION('',(0.0,-1.0,0.0));
#256=VECTOR('',#255,64.0);
#257=LINE('',#254,#256);
#258=EDGE_CURVE('',#247,#141,#257,.T.);
#259=ORIENTED_EDGE('',*,*,#258,.T.);
#260=ORIENTED_EDGE('',*,*,#146,.F.);
#261=CARTESIAN_POINT('',(81.000000000000028,38.0,37.5));
#262=DIRECTION('',(0.0,-1.0,0.0));
#263=VECTOR('',#262,63.999999999999993);
#264=LINE('',#261,#263);
#265=EDGE_CURVE('',#245,#133,#264,.T.);
#266=ORIENTED_EDGE('',*,*,#265,.F.);
#267=EDGE_LOOP('',(#253,#259,#260,#266));
#268=FACE_OUTER_BOUND('',#267,.T.);
#269=ADVANCED_FACE('',(#268),#243,.T.);
#270=CARTESIAN_POINT('',(43.000000000000021,-5.0,38.0));
#271=DIRECTION('',(0.0,0.0,1.0));
#272=DIRECTION('',(1.0,0.0,0.0));
#273=AXIS2_PLACEMENT_3D('',#270,#271,#272);
#274=PLANE('',#273);
#275=ORIENTED_EDGE('',*,*,#160,.T.);
#276=CARTESIAN_POINT('',(5.000000000000021,-48.0,38.0));
#277=VERTEX_POINT('',#276);
#278=CARTESIAN_POINT('',(5.00000000000002,-26.0,38.0));
#279=DIRECTION('',(0.0,-1.0,0.0));
#280=VECTOR('',#279,22.0);
#281=LINE('',#278,#280);
#282=EDGE_CURVE('',#149,#277,#281,.T.);
#283=ORIENTED_EDGE('',*,*,#282,.T.);
#284=CARTESIAN_POINT('',(81.000000000000028,-48.0,38.0));
#285=VERTEX_POINT('',#284);
#286=CARTESIAN_POINT('',(81.000000000000028,-48.0,38.0));
#287=DIRECTION('',(-1.0,0.0,0.0));
#288=VECTOR('',#287,76.000000000000014);
#289=LINE('',#286,#288);
#290=EDGE_CURVE('',#285,#277,#289,.T.);
#291=ORIENTED_EDGE('',*,*,#290,.F.);
#292=CARTESIAN_POINT('',(81.000000000000028,-48.0,38.0));
#293=DIRECTION('',(0.0,1.0,0.0));
#294=VECTOR('',#293,22.0);
#295=LINE('',#292,#294);
#296=EDGE_CURVE('',#285,#131,#295,.T.);
#297=ORIENTED_EDGE('',*,*,#296,.T.);
#298=EDGE_LOOP('',(#275,#283,#291,#297));
#299=FACE_OUTER_BOUND('',#298,.T.);
#300=ADVANCED_FACE('',(#299),#274,.T.);
#301=CARTESIAN_POINT('',(-4.999999999999993,-5.684342E-014,-189.90000000000009));
#302=DIRECTION('',(1.0,9.228729E-017,0.0));
#303=DIRECTION('',(1.902014E-017,-0.206097037355088,0.978531558608845));
#304=AXIS2_PLACEMENT_3D('',#301,#302,#303);
#305=CYLINDRICAL_SURFACE('',#304,232.90000000000006);
#306=CARTESIAN_POINT('',(91.000000000000028,48.0,37.999999999999986));
#307=VERTEX_POINT('',#306);
#308=CARTESIAN_POINT('',(91.000000000000028,-48.0,37.999999999999986));
#309=VERTEX_POINT('',#308);
#310=CARTESIAN_POINT('',(91.000000000000028,-2.842171E-014,-189.90000000000009));
#311=DIRECTION('',(1.0,3.919994E-018,-1.861180E-017));
#312=DIRECTION('',(1.902014E-017,-0.206097037355088,0.978531558608845));
#313=AXIS2_PLACEMENT_3D('',#310,#311,#312);
#314=CIRCLE('',#313,232.90000000000006);
#315=EDGE_CURVE('',#307,#309,#314,.T.);
#316=ORIENTED_EDGE('',*,*,#315,.F.);
#317=CARTESIAN_POINT('',(-5.000000000000007,47.999999999999972,38.0));
#318=VERTEX_POINT('',#317);
#319=CARTESIAN_POINT('',(-5.000000000000007,47.999999999999972,37.999999999999986));
#320=DIRECTION('',(1.0,0.0,0.0));
#321=VECTOR('',#320,96.000000000000028);
#322=LINE('',#319,#321);
#323=EDGE_CURVE('',#318,#307,#322,.T.);
#324=ORIENTED_EDGE('',*,*,#323,.F.);
#325=CARTESIAN_POINT('',(-4.999999999999993,-48.000000000000057,38.0));
#326=VERTEX_POINT('',#325);
#327=CARTESIAN_POINT('',(-4.999999999999993,-5.684342E-014,-189.90000000000009));
#328=DIRECTION('',(-1.0,-3.919994E-018,1.861180E-017));
#329=DIRECTION('',(1.902014E-017,-0.206097037355088,0.978531558608845));
#330=AXIS2_PLACEMENT_3D('',#327,#328,#329);
#331=CIRCLE('',#330,232.90000000000006);
#332=EDGE_CURVE('',#326,#318,#331,.T.);
#333=ORIENTED_EDGE('',*,*,#332,.F.);
#334=CARTESIAN_POINT('',(5.000000000000021,-48.0,37.999999999999986));
#335=DIRECTION('',(-1.0,0.0,0.0));
#336=VECTOR('',#335,10.000000000000014);
#337=LINE('',#334,#336);
#338=EDGE_CURVE('',#277,#326,#337,.T.);
#339=ORIENTED_EDGE('',*,*,#338,.F.);
#340=CARTESIAN_POINT('',(4.999999999999993,38.0,39.879046042061873));
#341=VERTEX_POINT('',#340);
#342=CARTESIAN_POINT('',(4.999999999999993,-5.684342E-014,-189.90000000000009));
#343=DIRECTION('',(1.0,3.919994E-018,-1.861180E-017));
#344=DIRECTION('',(1.902014E-017,-0.206097037355088,0.978531558608845));
#345=AXIS2_PLACEMENT_3D('',#342,#343,#344);
#346=CIRCLE('',#345,232.90000000000006);
#347=EDGE_CURVE('',#341,#277,#346,.T.);
#348=ORIENTED_EDGE('',*,*,#347,.F.);
#349=CARTESIAN_POINT('',(81.000000000000028,38.0,39.879046042061873));
#350=VERTEX_POINT('',#349);
#351=CARTESIAN_POINT('',(81.000000000000028,38.000000000000007,39.879046042061873));
#352=DIRECTION('',(-1.0,0.0,0.0));
#353=VECTOR('',#352,76.000000000000028);
#354=LINE('',#351,#353);
#355=EDGE_CURVE('',#350,#341,#354,.T.);
#356=ORIENTED_EDGE('',*,*,#355,.F.);
#357=CARTESIAN_POINT('',(81.000000000000028,-2.842171E-014,-189.90000000000009));
#358=DIRECTION('',(-1.0,-3.919994E-018,1.861180E-017));
#359=DIRECTION('',(1.902014E-017,-0.206097037355088,0.978531558608845));
#360=AXIS2_PLACEMENT_3D('',#357,#358,#359);
#361=CIRCLE('',#360,232.90000000000006);
#362=EDGE_CURVE('',#285,#350,#361,.T.);
#363=ORIENTED_EDGE('',*,*,#362,.F.);
#364=CARTESIAN_POINT('',(91.000000000000028,-47.999999999999993,37.999999999999986));
#365=DIRECTION('',(-1.0,0.0,0.0));
#366=VECTOR('',#365,10.0);
#367=LINE('',#364,#366);
#368=EDGE_CURVE('',#309,#285,#367,.T.);
#369=ORIENTED_EDGE('',*,*,#368,.F.);
#370=EDGE_LOOP('',(#316,#324,#333,#339,#348,#356,#363,#369));
#371=FACE_OUTER_BOUND('',#370,.T.);
#372=ADVANCED_FACE('',(#371),#305,.T.);
#373=CARTESIAN_POINT('',(91.000000000000028,48.0,24.0));
#374=DIRECTION('',(1.0,0.0,0.0));
#375=DIRECTION('',(0.0,0.0,-1.0));
#376=AXIS2_PLACEMENT_3D('',#373,#374,#375);
#377=PLANE('',#376);
#378=ORIENTED_EDGE('',*,*,#315,.T.);
#379=CARTESIAN_POINT('',(91.000000000000028,-48.0,24.0));
#380=DIRECTION('',(0.0,0.0,1.0));
#381=VECTOR('',#380,13.999999999999986);
#382=LINE('',#379,#381);
#383=EDGE_CURVE('',#173,#309,#382,.T.);
#384=ORIENTED_EDGE('',*,*,#383,.F.);
#385=ORIENTED_EDGE('',*,*,#200,.T.);
#386=CARTESIAN_POINT('',(91.000000000000028,48.0,24.0));
#387=DIRECTION('',(0.0,0.0,1.0));
#388=VECTOR('',#387,13.999999999999986);
#389=LINE('',#386,#388);
#390=EDGE_CURVE('',#189,#307,#389,.T.);
#391=ORIENTED_EDGE('',*,*,#390,.T.);
#392=EDGE_LOOP('',(#378,#384,#385,#391));
#393=FACE_OUTER_BOUND('',#392,.T.);
#394=ADVANCED_FACE('',(#393),#377,.T.);
#395=CARTESIAN_POINT('',(81.000000000000028,38.0,43.0));
#396=DIRECTION('',(0.0,1.0,0.0));
#397=DIRECTION('',(0.0,0.0,1.0));
#398=AXIS2_PLACEMENT_3D('',#395,#396,#397);
#399=PLANE('',#398);
#400=ORIENTED_EDGE('',*,*,#355,.T.);
#401=CARTESIAN_POINT('',(4.999999999999993,38.0,39.879046042061873));
#402=DIRECTION('',(0.0,0.0,-1.0));
#403=VECTOR('',#402,2.379046042061873);
#404=LINE('',#401,#403);
#405=EDGE_CURVE('',#341,#247,#404,.T.);
#406=ORIENTED_EDGE('',*,*,#405,.T.);
#407=ORIENTED_EDGE('',*,*,#252,.F.);
#408=CARTESIAN_POINT('',(81.000000000000028,38.0,39.879046042061873));
#409=DIRECTION('',(0.0,0.0,-1.0));
#410=VECTOR('',#409,2.379046042061873);
#411=LINE('',#408,#410);
#412=EDGE_CURVE('',#350,#245,#411,.T.);
#413=ORIENTED_EDGE('',*,*,#412,.F.);
#414=EDGE_LOOP('',(#400,#406,#407,#413));
#415=FACE_OUTER_BOUND('',#414,.T.);
#416=ADVANCED_FACE('',(#415),#399,.F.);
#417=CARTESIAN_POINT('',(91.000000000000028,-48.0,24.0));
#418=DIRECTION('',(0.0,-1.0,0.0));
#419=DIRECTION('',(0.0,0.0,-1.0));
#420=AXIS2_PLACEMENT_3D('',#417,#418,#419);
#421=PLANE('',#420);
#422=ORIENTED_EDGE('',*,*,#368,.T.);
#423=ORIENTED_EDGE('',*,*,#290,.T.);
#424=ORIENTED_EDGE('',*,*,#338,.T.);
#425=CARTESIAN_POINT('',(-4.999999999999993,-48.0,24.0));
#426=DIRECTION('',(0.0,0.0,1.0));
#427=VECTOR('',#426,14.0);
#428=LINE('',#425,#427);
#429=EDGE_CURVE('',#171,#326,#428,.T.);
#430=ORIENTED_EDGE('',*,*,#429,.F.);
#431=ORIENTED_EDGE('',*,*,#178,.T.);
#432=ORIENTED_EDGE('',*,*,#383,.T.);
#433=EDGE_LOOP('',(#422,#423,#424,#430,#431,#432));
#434=FACE_OUTER_BOUND('',#433,.T.);
#435=ADVANCED_FACE('',(#434),#421,.T.);
#436=CARTESIAN_POINT('',(4.999999999999993,38.0,43.0));
#437=DIRECTION('',(-1.0,0.0,0.0));
#438=DIRECTION('',(0.0,0.0,1.0));
#439=AXIS2_PLACEMENT_3D('',#436,#437,#438);
#440=PLANE('',#439);
#441=ORIENTED_EDGE('',*,*,#347,.T.);
#442=ORIENTED_EDGE('',*,*,#282,.F.);
#443=ORIENTED_EDGE('',*,*,#154,.F.);
#444=ORIENTED_EDGE('',*,*,#258,.F.);
#445=ORIENTED_EDGE('',*,*,#405,.F.);
#446=EDGE_LOOP('',(#441,#442,#443,#444,#445));
#447=FACE_OUTER_BOUND('',#446,.T.);
#448=ADVANCED_FACE('',(#447),#440,.F.);
#449=CARTESIAN_POINT('',(81.000000000000028,-48.0,43.0));
#450=DIRECTION('',(1.0,0.0,0.0));
#451=DIRECTION('',(0.0,0.0,-1.0));
#452=AXIS2_PLACEMENT_3D('',#449,#450,#451);
#453=PLANE('',#452);
#454=ORIENTED_EDGE('',*,*,#362,.T.);
#455=ORIENTED_EDGE('',*,*,#412,.T.);
#456=ORIENTED_EDGE('',*,*,#265,.T.);
#457=ORIENTED_EDGE('',*,*,#138,.F.);
#458=ORIENTED_EDGE('',*,*,#296,.F.);
#459=EDGE_LOOP('',(#454,#455,#456,#457,#458));
#460=FACE_OUTER_BOUND('',#459,.T.);
#461=ADVANCED_FACE('',(#460),#453,.F.);
#462=CARTESIAN_POINT('',(-4.999999999999993,-48.0,24.0));
#463=DIRECTION('',(-1.0,0.0,0.0));
#464=DIRECTION('',(0.0,0.0,1.0));
#465=AXIS2_PLACEMENT_3D('',#462,#463,#464);
#466=PLANE('',#465);
#467=ORIENTED_EDGE('',*,*,#332,.T.);
#468=CARTESIAN_POINT('',(-5.000000000000007,47.999999999999972,24.0));
#469=DIRECTION('',(0.0,0.0,1.0));
#470=VECTOR('',#469,14.0);
#471=LINE('',#468,#470);
#472=EDGE_CURVE('',#181,#318,#471,.T.);
#473=ORIENTED_EDGE('',*,*,#472,.F.);
#474=ORIENTED_EDGE('',*,*,#186,.T.);
#475=ORIENTED_EDGE('',*,*,#429,.T.);
#476=EDGE_LOOP('',(#467,#473,#474,#475));
#477=FACE_OUTER_BOUND('',#476,.T.);
#478=ADVANCED_FACE('',(#477),#466,.T.);
#479=CARTESIAN_POINT('',(-5.000000000000007,47.999999999999972,24.0));
#480=DIRECTION('',(0.0,1.0,0.0));
#481=DIRECTION('',(0.0,0.0,1.0));
#482=AXIS2_PLACEMENT_3D('',#479,#480,#481);
#483=PLANE('',#482);
#484=ORIENTED_EDGE('',*,*,#323,.T.);
#485=ORIENTED_EDGE('',*,*,#390,.F.);
#486=ORIENTED_EDGE('',*,*,#194,.T.);
#487=ORIENTED_EDGE('',*,*,#472,.T.);
#488=EDGE_LOOP('',(#484,#485,#486,#487));
#489=FACE_OUTER_BOUND('',#488,.T.);
#490=ADVANCED_FACE('',(#489),#483,.T.);
#491=CARTESIAN_POINT('',(0.0,-45.400000000000006,0.0));
#492=CARTESIAN_POINT('',(90.799999999999997,-45.400000000000006,0.0));
#493=CARTESIAN_POINT('',(0.0,45.400000000000006,0.0));
#494=CARTESIAN_POINT('',(90.799999999999997,45.400000000000006,0.0));
#495=B_SPLINE_SURFACE_WITH_KNOTS('',1,1,((#491,#493),(#492,#494)),.UNSPECIFIED.,.F.,.F.,.U.,(2,2),(2,2),(0.0,90.799999999999997),(0.0,90.800000000000011),.UNSPECIFIED.);
#496=CARTESIAN_POINT('',(0.0,45.400000000000006,0.0));
#497=VERTEX_POINT('',#496);
#498=CARTESIAN_POINT('',(0.0,-45.400000000000006,0.0));
#499=VERTEX_POINT('',#498);
#500=CARTESIAN_POINT('',(0.0,45.400000000000006,0.0));
#501=DIRECTION('',(0.0,-1.0,0.0));
#502=VECTOR('',#501,90.800000000000011);
#503=LINE('',#500,#502);
#504=EDGE_CURVE('',#497,#499,#503,.T.);
#505=ORIENTED_EDGE('',*,*,#504,.F.);
#506=CARTESIAN_POINT('',(90.799999999999997,45.400000000000006,0.0));
#507=VERTEX_POINT('',#506);
#508=CARTESIAN_POINT('',(90.799999999999997,45.400000000000006,0.0));
#509=DIRECTION('',(-1.0,0.0,0.0));
#510=VECTOR('',#509,90.799999999999997);
#511=LINE('',#508,#510);
#512=EDGE_CURVE('',#507,#497,#511,.T.);
#513=ORIENTED_EDGE('',*,*,#512,.F.);
#514=CARTESIAN_POINT('',(90.799999999999997,-45.400000000000006,0.0));
#515=VERTEX_POINT('',#514);
#516=CARTESIAN_POINT('',(90.799999999999997,-45.400000000000006,0.0));
#517=DIRECTION('',(0.0,1.0,0.0));
#518=VECTOR('',#517,90.800000000000011);
#519=LINE('',#516,#518);
#520=EDGE_CURVE('',#515,#507,#519,.T.);
#521=ORIENTED_EDGE('',*,*,#520,.F.);
#522=CARTESIAN_POINT('',(0.0,-45.400000000000006,0.0));
#523=DIRECTION('',(1.0,0.0,0.0));
#524=VECTOR('',#523,90.799999999999997);
#525=LINE('',#522,#524);
#526=EDGE_CURVE('',#499,#515,#525,.T.);
#527=ORIENTED_EDGE('',*,*,#526,.F.);
#528=EDGE_LOOP('',(#505,#513,#521,#527));
#529=FACE_OUTER_BOUND('',#528,.T.);
#530=ADVANCED_FACE('',(#529),#495,.F.);
#531=CARTESIAN_POINT('',(90.799999999999997,45.400000000000006,0.0));
#532=CARTESIAN_POINT('',(90.799999999999997,45.400000000000006,24.0));
#533=CARTESIAN_POINT('',(0.0,45.400000000000006,0.0));
#534=CARTESIAN_POINT('',(0.0,45.400000000000006,24.0));
#535=B_SPLINE_SURFACE_WITH_KNOTS('',1,1,((#531,#533),(#532,#534)),.UNSPECIFIED.,.F.,.F.,.U.,(2,2),(2,2),(0.0,24.0),(0.0,90.799999999999997),.UNSPECIFIED.);
#536=CARTESIAN_POINT('',(0.0,45.400000000000006,24.0));
#537=DIRECTION('',(0.0,0.0,-1.0));
#538=VECTOR('',#537,24.0);
#539=LINE('',#536,#538);
#540=EDGE_CURVE('',#207,#497,#539,.T.);
#541=ORIENTED_EDGE('',*,*,#540,.F.);
#542=ORIENTED_EDGE('',*,*,#234,.T.);
#543=CARTESIAN_POINT('',(90.799999999999997,45.400000000000006,24.0));
#544=DIRECTION('',(0.0,0.0,-1.0));
#545=VECTOR('',#544,24.0);
#546=LINE('',#543,#545);
#547=EDGE_CURVE('',#223,#507,#546,.T.);
#548=ORIENTED_EDGE('',*,*,#547,.T.);
#549=ORIENTED_EDGE('',*,*,#512,.T.);
#550=EDGE_LOOP('',(#541,#542,#548,#549));
#551=FACE_OUTER_BOUND('',#550,.T.);
#552=ADVANCED_FACE('',(#551),#535,.F.);
#553=CARTESIAN_POINT('',(0.0,-45.400000000000006,24.0));
#554=CARTESIAN_POINT('',(0.0,-45.400000000000006,0.0));
#555=CARTESIAN_POINT('',(0.0,45.400000000000006,24.0));
#556=CARTESIAN_POINT('',(0.0,45.400000000000006,0.0));
#557=B_SPLINE_SURFACE_WITH_KNOTS('',1,1,((#553,#555),(#554,#556)),.UNSPECIFIED.,.F.,.F.,.U.,(2,2),(2,2),(0.0,24.0),(0.0,90.800000000000011),.UNSPECIFIED.);
#558=ORIENTED_EDGE('',*,*,#504,.T.);
#559=CARTESIAN_POINT('',(0.0,-45.400000000000006,24.0));
#560=DIRECTION('',(0.0,0.0,-1.0));
#561=VECTOR('',#560,24.0);
#562=LINE('',#559,#561);
#563=EDGE_CURVE('',#205,#499,#562,.T.);
#564=ORIENTED_EDGE('',*,*,#563,.F.);
#565=ORIENTED_EDGE('',*,*,#212,.T.);
#566=ORIENTED_EDGE('',*,*,#540,.T.);
#567=EDGE_LOOP('',(#558,#564,#565,#566));
#568=FACE_OUTER_BOUND('',#567,.T.);
#569=ADVANCED_FACE('',(#568),#557,.F.);
#570=CARTESIAN_POINT('',(90.799999999999997,-45.400000000000006,24.0));
#571=CARTESIAN_POINT('',(90.799999999999997,-45.400000000000006,0.0));
#572=CARTESIAN_POINT('',(0.0,-45.400000000000006,24.0));
#573=CARTESIAN_POINT('',(0.0,-45.400000000000006,0.0));
#574=B_SPLINE_SURFACE_WITH_KNOTS('',1,1,((#570,#572),(#571,#573)),.UNSPECIFIED.,.F.,.F.,.U.,(2,2),(2,2),(0.0,24.0),(0.0,90.799999999999997),.UNSPECIFIED.);
#575=CARTESIAN_POINT('',(90.799999999999997,-45.400000000000006,24.0));
#576=DIRECTION('',(0.0,0.0,-1.0));
#577=VECTOR('',#576,24.0);
#578=LINE('',#575,#577);
#579=EDGE_CURVE('',#215,#515,#578,.T.);
#580=ORIENTED_EDGE('',*,*,#579,.F.);
#581=ORIENTED_EDGE('',*,*,#220,.T.);
#582=ORIENTED_EDGE('',*,*,#563,.T.);
#583=ORIENTED_EDGE('',*,*,#526,.T.);
#584=EDGE_LOOP('',(#580,#581,#582,#583));
#585=FACE_OUTER_BOUND('',#584,.T.);
#586=ADVANCED_FACE('',(#585),#574,.F.);
#587=CARTESIAN_POINT('',(90.799999999999997,-45.400000000000006,0.0));
#588=CARTESIAN_POINT('',(90.799999999999997,-45.400000000000006,24.0));
#589=CARTESIAN_POINT('',(90.799999999999997,45.400000000000006,0.0));
#590=CARTESIAN_POINT('',(90.799999999999997,45.400000000000006,24.0));
#591=B_SPLINE_SURFACE_WITH_KNOTS('',1,1,((#587,#589),(#588,#590)),.UNSPECIFIED.,.F.,.F.,.U.,(2,2),(2,2),(0.0,24.0),(0.0,90.800000000000011),.UNSPECIFIED.);
#592=ORIENTED_EDGE('',*,*,#547,.F.);
#593=ORIENTED_EDGE('',*,*,#228,.T.);
#594=ORIENTED_EDGE('',*,*,#579,.T.);
#595=ORIENTED_EDGE('',*,*,#520,.T.);
#596=EDGE_LOOP('',(#592,#593,#594,#595));
#597=FACE_OUTER_BOUND('',#596,.T.);
#598=ADVANCED_FACE('',(#597),#591,.F.);
#599=CLOSED_SHELL('',(#164,#238,#269,#300,#372,#394,#416,#435,#448,#461,#478,#490,#530,#552,#569,#586,#598));
#600=MANIFOLD_SOLID_BREP('C2CC1',#599);
#601=ADVANCED_BREP_SHAPE_REPRESENTATION('ABSR1',(#600),#28);
#602=SHAPE_REPRESENTATION_RELATIONSHIP('SRRPL1','',#601,#122);
ENDSEC;
END-ISO-10303-21;
