ISO-10303-21;
HEADER;
FILE_DESCRIPTION (( 'STEP AP203' ),
    '1' );
FILE_NAME ('PE24-400-(NT)_210125.STEP',
    '2021-01-25T08:40:56',
    ( '' ),
    ( '' ),
    'SwSTEP 2.0',
    'SolidWorks 2019',
    '' );
FILE_SCHEMA (( 'CONFIG_CONTROL_DESIGN' ));
ENDSEC;

DATA;
#1 = VERTEX_POINT ( 'NONE', #174 ) ;
#2 = APPROVAL ( #149, 'UNSPECIFIED' ) ;
#3 = DIRECTION ( 'NONE',  ( 1.000000000000000000, 0.0000000000000000000, 0.0000000000000000000 ) ) ;
#4 = CARTESIAN_POINT ( 'NONE',  ( 9.750000000000001776, 1.194030629168669667E-15, 400.0000000000000000 ) ) ;
#5 = CYLINDRICAL_SURFACE ( 'NONE', #63, 9.750000000000001776 ) ;
#6 = CC_DESIGN_APPROVAL ( #140, ( #134 ) ) ;
#7 = DATE_AND_TIME ( #125, #178 ) ;
#8 = ORIENTED_EDGE ( 'NONE', *, *, #245, .F. ) ;
#9 = APPROVAL_STATUS ( 'not_yet_approved' ) ;
#10 = APPLICATION_PROTOCOL_DEFINITION ( 'international standard', 'config_control_design', 1994, #218 ) ;
#11 = AXIS2_PLACEMENT_3D ( 'NONE', #81, #42, #83 ) ;
#12 = ADVANCED_FACE ( 'NONE', ( #249 ), #170, .T. ) ;
#13 = ORIENTED_EDGE ( 'NONE', *, *, #28, .T. ) ;
#14 = VERTEX_POINT ( 'NONE', #76 ) ;
#15 = AXIS2_PLACEMENT_3D ( 'NONE', #160, #39, #179 ) ;
#16 = CARTESIAN_POINT ( 'NONE',  ( 0.0000000000000000000, 0.0000000000000000000, 400.0000000000000000 ) ) ;
#17 = UNCERTAINTY_MEASURE_WITH_UNIT (LENGTH_MEASURE( 1.000000000000000082E-05 ), #223, 'distance_accuracy_value', 'NONE');
#18 = ORIENTED_EDGE ( 'NONE', *, *, #90, .F. ) ;
#19 = PERSON ( 'UNSPECIFIED', 'UNSPECIFIED', 'UNSPECIFIED', ('UNSPECIFIED'), ('UNSPECIFIED'), ('UNSPECIFIED') ) ;
#20 = EDGE_LOOP ( 'NONE', ( #13, #70, #172, #8 ) ) ;
#21 = DIRECTION ( 'NONE',  ( 0.0000000000000000000, 0.0000000000000000000, 1.000000000000000000 ) ) ;
#22 = VECTOR ( 'NONE', #212, 1000.000000000000000 ) ;
#23 = CARTESIAN_POINT ( 'NONE',  ( 0.0000000000000000000, 0.0000000000000000000, 400.0000000000000000 ) ) ;
#24 = CARTESIAN_POINT ( 'NONE',  ( -9.750000000000001776, 0.0000000000000000000, 400.0000000000000000 ) ) ;
#25 = CARTESIAN_POINT ( 'NONE',  ( 0.0000000000000000000, 0.0000000000000000000, 0.0000000000000000000 ) ) ;
#26 = AXIS2_PLACEMENT_3D ( 'NONE', #182, #225, #186 ) ;
#27 = DIRECTION ( 'NONE',  ( 1.000000000000000000, 0.0000000000000000000, 0.0000000000000000000 ) ) ;
#28 = EDGE_CURVE ( 'NONE', #187, #91, #138, .T. ) ;
#29 = PERSON_AND_ORGANIZATION ( #19, #241 ) ;
#30 = CC_DESIGN_DATE_AND_TIME_ASSIGNMENT ( #168, #47, ( #184 ) ) ;
#31 = PERSON_AND_ORGANIZATION_ROLE ( 'classification_officer' ) ;
#32 = AXIS2_PLACEMENT_3D ( 'NONE', #199, #162, #27 ) ;
#33 = PERSON_AND_ORGANIZATION ( #19, #241 ) ;
#34 = ADVANCED_FACE ( 'NONE', ( #229 ), #36, .T. ) ;
#35 = ORIENTED_EDGE ( 'NONE', *, *, #117, .F. ) ;
#36 = CYLINDRICAL_SURFACE ( 'NONE', #133, 11.97500000000000142 ) ;
#37 = PLANE ( 'NONE',  #177 ) ;
#38 = ORIENTED_EDGE ( 'NONE', *, *, #164, .F. ) ;
#39 = DIRECTION ( 'NONE',  ( 0.0000000000000000000, 0.0000000000000000000, 1.000000000000000000 ) ) ;
#40 = EDGE_CURVE ( 'NONE', #153, #211, #202, .T. ) ;
#41 = PLANE ( 'NONE',  #15 ) ;
#42 = DIRECTION ( 'NONE',  ( 0.0000000000000000000, 0.0000000000000000000, 1.000000000000000000 ) ) ;
#43 = APPROVAL_ROLE ( '' ) ;
#44 = SECURITY_CLASSIFICATION_LEVEL ( 'unclassified' ) ;
#45 = PERSON_AND_ORGANIZATION ( #19, #241 ) ;
#46 = APPROVAL ( #9, 'UNSPECIFIED' ) ;
#47 = DATE_TIME_ROLE ( 'creation_date' ) ;
#48 = MECHANICAL_CONTEXT ( 'NONE', #218, 'mechanical' ) ;
#49 = COORDINATED_UNIVERSAL_TIME_OFFSET ( 9, 0, .AHEAD. ) ;
#50 = VECTOR ( 'NONE', #193, 1000.000000000000000 ) ;
#51 = VERTEX_POINT ( 'NONE', #77 ) ;
#52 = ADVANCED_BREP_SHAPE_REPRESENTATION ( 'PE24-400-(NT)_210125', ( #227, #26 ), #114 ) ;
#53 = EDGE_LOOP ( 'NONE', ( #79, #115, #94, #74 ) ) ;
#54 = DIRECTION ( 'NONE',  ( 1.000000000000000000, 0.0000000000000000000, 0.0000000000000000000 ) ) ;
#55 = VECTOR ( 'NONE', #233, 1000.000000000000000 ) ;
#56 = CC_DESIGN_APPROVAL ( #46, ( #97 ) ) ;
#57 = ORIENTED_EDGE ( 'NONE', *, *, #90, .T. ) ;
#58 = APPLICATION_CONTEXT ( 'configuration controlled 3d designs of mechanical parts and assemblies' ) ;
#59 = ADVANCED_FACE ( 'NONE', ( #210, #154 ), #37, .T. ) ;
#60 = ORIENTED_EDGE ( 'NONE', *, *, #176, .T. ) ;
#61 = CARTESIAN_POINT ( 'NONE',  ( 11.97500000000000142, 1.466514541978955608E-15, 400.0000000000000000 ) ) ;
#62 = LINE ( 'NONE', #139, #22 ) ;
#63 = AXIS2_PLACEMENT_3D ( 'NONE', #66, #84, #119 ) ;
#64 = LINE ( 'NONE', #234, #55 ) ;
#65 = EDGE_CURVE ( 'NONE', #153, #1, #64, .T. ) ;
#66 = CARTESIAN_POINT ( 'NONE',  ( 0.0000000000000000000, 0.0000000000000000000, 400.0000000000000000 ) ) ;
#67 = CARTESIAN_POINT ( 'NONE',  ( 0.0000000000000000000, 0.0000000000000000000, 400.0000000000000000 ) ) ;
#68 = AXIS2_PLACEMENT_3D ( 'NONE', #158, #141, #197 ) ;
#69 = COORDINATED_UNIVERSAL_TIME_OFFSET ( 9, 0, .AHEAD. ) ;
#70 = ORIENTED_EDGE ( 'NONE', *, *, #181, .T. ) ;
#71 = APPROVAL_ROLE ( '' ) ;
#72 = APPLICATION_PROTOCOL_DEFINITION ( 'international standard', 'config_control_design', 1994, #58 ) ;
#73 = CC_DESIGN_PERSON_AND_ORGANIZATION_ASSIGNMENT ( #29, #242, ( #134 ) ) ;
#74 = ORIENTED_EDGE ( 'NONE', *, *, #65, .F. ) ;
#75 = ADVANCED_FACE ( 'NONE', ( #137 ), #80, .F. ) ;
#76 = CARTESIAN_POINT ( 'NONE',  ( 11.97500000000000142, 1.466514541978955608E-15, 0.0000000000000000000 ) ) ;
#77 = CARTESIAN_POINT ( 'NONE',  ( 9.750000000000001776, 1.194030629168669667E-15, 0.0000000000000000000 ) ) ;
#78 = ORIENTED_EDGE ( 'NONE', *, *, #181, .F. ) ;
#79 = ORIENTED_EDGE ( 'NONE', *, *, #109, .F. ) ;
#80 = CYLINDRICAL_SURFACE ( 'NONE', #183, 9.750000000000001776 ) ;
#81 = CARTESIAN_POINT ( 'NONE',  ( 0.0000000000000000000, 0.0000000000000000000, 0.0000000000000000000 ) ) ;
#82 = ADVANCED_FACE ( 'NONE', ( #122, #180 ), #41, .F. ) ;
#83 = DIRECTION ( 'NONE',  ( 1.000000000000000000, 0.0000000000000000000, 0.0000000000000000000 ) ) ;
#84 = DIRECTION ( 'NONE',  ( -0.0000000000000000000, -0.0000000000000000000, -1.000000000000000000 ) ) ;
#85 = APPROVAL_DATE_TIME ( #7, #2 ) ;
#86 = DIRECTION ( 'NONE',  ( -0.0000000000000000000, -0.0000000000000000000, -1.000000000000000000 ) ) ;
#87 = CLOSED_SHELL ( 'NONE', ( #142, #34, #59, #82, #12, #75 ) ) ;
#88 = COORDINATED_UNIVERSAL_TIME_OFFSET ( 9, 0, .AHEAD. ) ;
#89 = ORIENTED_EDGE ( 'NONE', *, *, #245, .T. ) ;
#90 = EDGE_CURVE ( 'NONE', #1, #14, #246, .T. ) ;
#91 = VERTEX_POINT ( 'NONE', #4 ) ;
#92 = CC_DESIGN_PERSON_AND_ORGANIZATION_ASSIGNMENT ( #204, #221, ( #134 ) ) ;
#93 = ORIENTED_EDGE ( 'NONE', *, *, #164, .T. ) ;
#94 = ORIENTED_EDGE ( 'NONE', *, *, #117, .T. ) ;
#95 = ORIENTED_EDGE ( 'NONE', *, *, #205, .F. ) ;
#96 = CIRCLE ( 'NONE', #130, 9.750000000000001776 ) ;
#97 = SECURITY_CLASSIFICATION ( '', '', #44 ) ;
#98 = LINE ( 'NONE', #118, #50 ) ;
#99 = DIRECTION ( 'NONE',  ( 1.000000000000000000, 0.0000000000000000000, 0.0000000000000000000 ) ) ;
#100 = LINE ( 'NONE', #145, #194 ) ;
#101 = CC_DESIGN_DATE_AND_TIME_ASSIGNMENT ( #185, #203, ( #97 ) ) ;
#102 = AXIS2_PLACEMENT_3D ( 'NONE', #25, #196, #3 ) ;
#103 = APPROVAL_PERSON_ORGANIZATION ( #45, #2, #128 ) ;
#104 = DIRECTION ( 'NONE',  ( 0.0000000000000000000, 0.0000000000000000000, 1.000000000000000000 ) ) ;
#105 =( NAMED_UNIT ( * ) PLANE_ANGLE_UNIT ( ) SI_UNIT ( $, .RADIAN. ) );
#106 = CC_DESIGN_SECURITY_CLASSIFICATION ( #97, ( #134 ) ) ;
#107 = PERSON_AND_ORGANIZATION ( #19, #241 ) ;
#108 = ORIENTED_EDGE ( 'NONE', *, *, #147, .T. ) ;
#109 = EDGE_CURVE ( 'NONE', #211, #153, #214, .T. ) ;
#110 = CARTESIAN_POINT ( 'NONE',  ( 0.0000000000000000000, 0.0000000000000000000, 400.0000000000000000 ) ) ;
#111 = CC_DESIGN_PERSON_AND_ORGANIZATION_ASSIGNMENT ( #163, #143, ( #173 ) ) ;
#112 = EDGE_LOOP ( 'NONE', ( #108, #93 ) ) ;
#113 = PRODUCT_DEFINITION_SHAPE ( 'NONE', 'NONE',  #184 ) ;
#114 =( GEOMETRIC_REPRESENTATION_CONTEXT ( 3 ) GLOBAL_UNCERTAINTY_ASSIGNED_CONTEXT ( ( #17 ) ) GLOBAL_UNIT_ASSIGNED_CONTEXT ( ( #223, #105, #148 ) ) REPRESENTATION_CONTEXT ( 'NONE', 'WORKASPACE' ) );
#115 = ORIENTED_EDGE ( 'NONE', *, *, #205, .T. ) ;
#116 = EDGE_LOOP ( 'NONE', ( #151, #136 ) ) ;
#117 = EDGE_CURVE ( 'NONE', #14, #1, #123, .T. ) ;
#118 = CARTESIAN_POINT ( 'NONE',  ( 11.97500000000000142, 1.466514541978955608E-15, 400.0000000000000000 ) ) ;
#119 = DIRECTION ( 'NONE',  ( -1.000000000000000000, 0.0000000000000000000, 0.0000000000000000000 ) ) ;
#120 = DIRECTION ( 'NONE',  ( -0.0000000000000000000, -0.0000000000000000000, -1.000000000000000000 ) ) ;
#121 = DIRECTION ( 'NONE',  ( -1.000000000000000000, 0.0000000000000000000, 0.0000000000000000000 ) ) ;
#122 = FACE_OUTER_BOUND ( 'NONE', #231, .T. ) ;
#123 = CIRCLE ( 'NONE', #11, 11.97500000000000142 ) ;
#124 = CALENDAR_DATE ( 2021, 25, 1 ) ;
#125 = CALENDAR_DATE ( 2021, 25, 1 ) ;
#126 = DATE_AND_TIME ( #124, #236 ) ;
#127 = PERSON_AND_ORGANIZATION ( #19, #241 ) ;
#128 = APPROVAL_ROLE ( '' ) ;
#129 = APPROVAL_DATE_TIME ( #226, #46 ) ;
#130 = AXIS2_PLACEMENT_3D ( 'NONE', #67, #21, #99 ) ;
#131 = DIRECTION ( 'NONE',  ( 0.0000000000000000000, 0.0000000000000000000, 1.000000000000000000 ) ) ;
#132 = DIRECTION ( 'NONE',  ( -1.000000000000000000, 0.0000000000000000000, 0.0000000000000000000 ) ) ;
#133 = AXIS2_PLACEMENT_3D ( 'NONE', #110, #188, #132 ) ;
#134 = PRODUCT_DEFINITION_FORMATION_WITH_SPECIFIED_SOURCE ( 'ANY', '', #173, .NOT_KNOWN. ) ;
#135 = DIRECTION ( 'NONE',  ( -0.0000000000000000000, -0.0000000000000000000, -1.000000000000000000 ) ) ;
#136 = ORIENTED_EDGE ( 'NONE', *, *, #109, .T. ) ;
#137 = FACE_OUTER_BOUND ( 'NONE', #192, .T. ) ;
#138 = CIRCLE ( 'NONE', #152, 9.750000000000001776 ) ;
#139 = CARTESIAN_POINT ( 'NONE',  ( 9.750000000000001776, 1.194030629168669667E-15, 400.0000000000000000 ) ) ;
#140 = APPROVAL ( #220, 'UNSPECIFIED' ) ;
#141 = DIRECTION ( 'NONE',  ( 0.0000000000000000000, 0.0000000000000000000, 1.000000000000000000 ) ) ;
#142 = ADVANCED_FACE ( 'NONE', ( #239 ), #5, .F. ) ;
#143 = PERSON_AND_ORGANIZATION_ROLE ( 'design_owner' ) ;
#144 = AXIS2_PLACEMENT_3D ( 'NONE', #16, #191, #54 ) ;
#145 = CARTESIAN_POINT ( 'NONE',  ( -9.750000000000001776, 0.0000000000000000000, 400.0000000000000000 ) ) ;
#146 = CALENDAR_DATE ( 2021, 25, 1 ) ;
#147 = EDGE_CURVE ( 'NONE', #248, #51, #156, .T. ) ;
#148 =( NAMED_UNIT ( * ) SI_UNIT ( $, .STERADIAN. ) SOLID_ANGLE_UNIT ( ) );
#149 = APPROVAL_STATUS ( 'not_yet_approved' ) ;
#150 = CALENDAR_DATE ( 2021, 25, 1 ) ;
#151 = ORIENTED_EDGE ( 'NONE', *, *, #40, .T. ) ;
#152 = AXIS2_PLACEMENT_3D ( 'NONE', #228, #131, #189 ) ;
#153 = VERTEX_POINT ( 'NONE', #195 ) ;
#154 = FACE_BOUND ( 'NONE', #169, .T. ) ;
#155 = ORIENTED_EDGE ( 'NONE', *, *, #65, .T. ) ;
#156 = CIRCLE ( 'NONE', #32, 9.750000000000001776 ) ;
#157 = DIRECTION ( 'NONE',  ( -1.000000000000000000, 0.0000000000000000000, 0.0000000000000000000 ) ) ;
#158 = CARTESIAN_POINT ( 'NONE',  ( 0.0000000000000000000, 0.0000000000000000000, 400.0000000000000000 ) ) ;
#159 = CC_DESIGN_PERSON_AND_ORGANIZATION_ASSIGNMENT ( #107, #206, ( #184 ) ) ;
#160 = CARTESIAN_POINT ( 'NONE',  ( 0.0000000000000000000, 0.0000000000000000000, 0.0000000000000000000 ) ) ;
#161 = AXIS2_PLACEMENT_3D ( 'NONE', #240, #104, #213 ) ;
#162 = DIRECTION ( 'NONE',  ( 0.0000000000000000000, 0.0000000000000000000, 1.000000000000000000 ) ) ;
#163 = PERSON_AND_ORGANIZATION ( #19, #241 ) ;
#164 = EDGE_CURVE ( 'NONE', #51, #248, #235, .T. ) ;
#165 = CALENDAR_DATE ( 2021, 25, 1 ) ;
#166 = CARTESIAN_POINT ( 'NONE',  ( -9.750000000000001776, 0.0000000000000000000, 0.0000000000000000000 ) ) ;
#167 = APPROVAL_PERSON_ORGANIZATION ( #33, #46, #71 ) ;
#168 = DATE_AND_TIME ( #165, #219 ) ;
#169 = EDGE_LOOP ( 'NONE', ( #247, #209 ) ) ;
#170 = CYLINDRICAL_SURFACE ( 'NONE', #222, 11.97500000000000142 ) ;
#171 = LOCAL_TIME ( 17, 40, 56.00000000000000000, #243 ) ;
#172 = ORIENTED_EDGE ( 'NONE', *, *, #147, .F. ) ;
#173 = PRODUCT ( 'PE24-400-(NT)_210125', 'PE24-400-(NT)_210125', '', ( #48 ) ) ;
#174 = CARTESIAN_POINT ( 'NONE',  ( -11.97500000000000142, 0.0000000000000000000, 0.0000000000000000000 ) ) ;
#175 = CARTESIAN_POINT ( 'NONE',  ( 0.0000000000000000000, 0.0000000000000000000, 400.0000000000000000 ) ) ;
#176 = EDGE_CURVE ( 'NONE', #91, #187, #96, .T. ) ;
#177 = AXIS2_PLACEMENT_3D ( 'NONE', #216, #237, #217 ) ;
#178 = LOCAL_TIME ( 17, 40, 56.00000000000000000, #69 ) ;
#179 = DIRECTION ( 'NONE',  ( 1.000000000000000000, 0.0000000000000000000, -0.0000000000000000000 ) ) ;
#180 = FACE_BOUND ( 'NONE', #112, .T. ) ;
#181 = EDGE_CURVE ( 'NONE', #91, #51, #62, .T. ) ;
#182 = CARTESIAN_POINT ( 'NONE',  ( 0.0000000000000000000, 0.0000000000000000000, 0.0000000000000000000 ) ) ;
#183 = AXIS2_PLACEMENT_3D ( 'NONE', #23, #120, #121 ) ;
#184 = PRODUCT_DEFINITION ( 'UNKNOWN', '', #134, #198 ) ;
#185 = DATE_AND_TIME ( #146, #171 ) ;
#186 = DIRECTION ( 'NONE',  ( 1.000000000000000000, 0.0000000000000000000, 0.0000000000000000000 ) ) ;
#187 = VERTEX_POINT ( 'NONE', #24 ) ;
#188 = DIRECTION ( 'NONE',  ( -0.0000000000000000000, -0.0000000000000000000, -1.000000000000000000 ) ) ;
#189 = DIRECTION ( 'NONE',  ( 1.000000000000000000, 0.0000000000000000000, 0.0000000000000000000 ) ) ;
#190 = LOCAL_TIME ( 17, 40, 56.00000000000000000, #49 ) ;
#191 = DIRECTION ( 'NONE',  ( 0.0000000000000000000, 0.0000000000000000000, 1.000000000000000000 ) ) ;
#192 = EDGE_LOOP ( 'NONE', ( #78, #60, #89, #38 ) ) ;
#193 = DIRECTION ( 'NONE',  ( -0.0000000000000000000, -0.0000000000000000000, -1.000000000000000000 ) ) ;
#194 = VECTOR ( 'NONE', #86, 1000.000000000000000 ) ;
#195 = CARTESIAN_POINT ( 'NONE',  ( -11.97500000000000142, 0.0000000000000000000, 400.0000000000000000 ) ) ;
#196 = DIRECTION ( 'NONE',  ( 0.0000000000000000000, 0.0000000000000000000, 1.000000000000000000 ) ) ;
#197 = DIRECTION ( 'NONE',  ( 1.000000000000000000, 0.0000000000000000000, 0.0000000000000000000 ) ) ;
#198 = DESIGN_CONTEXT ( 'detailed design', #58, 'design' ) ;
#199 = CARTESIAN_POINT ( 'NONE',  ( 0.0000000000000000000, 0.0000000000000000000, 0.0000000000000000000 ) ) ;
#200 = APPROVAL_DATE_TIME ( #126, #140 ) ;
#201 = PERSON_AND_ORGANIZATION ( #19, #241 ) ;
#202 = CIRCLE ( 'NONE', #144, 11.97500000000000142 ) ;
#203 = DATE_TIME_ROLE ( 'classification_date' ) ;
#204 = PERSON_AND_ORGANIZATION ( #19, #241 ) ;
#205 = EDGE_CURVE ( 'NONE', #211, #14, #98, .T. ) ;
#206 = PERSON_AND_ORGANIZATION_ROLE ( 'creator' ) ;
#207 = SHAPE_DEFINITION_REPRESENTATION ( #113, #52 ) ;
#208 = ORIENTED_EDGE ( 'NONE', *, *, #40, .F. ) ;
#209 = ORIENTED_EDGE ( 'NONE', *, *, #176, .F. ) ;
#210 = FACE_OUTER_BOUND ( 'NONE', #116, .T. ) ;
#211 = VERTEX_POINT ( 'NONE', #61 ) ;
#212 = DIRECTION ( 'NONE',  ( -0.0000000000000000000, -0.0000000000000000000, -1.000000000000000000 ) ) ;
#213 = DIRECTION ( 'NONE',  ( 1.000000000000000000, 0.0000000000000000000, 0.0000000000000000000 ) ) ;
#214 = CIRCLE ( 'NONE', #68, 11.97500000000000142 ) ;
#215 = APPROVAL_PERSON_ORGANIZATION ( #127, #140, #43 ) ;
#216 = CARTESIAN_POINT ( 'NONE',  ( 0.0000000000000000000, 0.0000000000000000000, 400.0000000000000000 ) ) ;
#217 = DIRECTION ( 'NONE',  ( 1.000000000000000000, 0.0000000000000000000, -0.0000000000000000000 ) ) ;
#218 = APPLICATION_CONTEXT ( 'configuration controlled 3d designs of mechanical parts and assemblies' ) ;
#219 = LOCAL_TIME ( 17, 40, 56.00000000000000000, #88 ) ;
#220 = APPROVAL_STATUS ( 'not_yet_approved' ) ;
#221 = PERSON_AND_ORGANIZATION_ROLE ( 'design_supplier' ) ;
#222 = AXIS2_PLACEMENT_3D ( 'NONE', #175, #135, #157 ) ;
#223 =( LENGTH_UNIT ( ) NAMED_UNIT ( * ) SI_UNIT ( .MILLI., .METRE. ) );
#224 = CC_DESIGN_APPROVAL ( #2, ( #184 ) ) ;
#225 = DIRECTION ( 'NONE',  ( 0.0000000000000000000, 0.0000000000000000000, 1.000000000000000000 ) ) ;
#226 = DATE_AND_TIME ( #150, #190 ) ;
#227 = MANIFOLD_SOLID_BREP ( 'º¸½º-µ¹Ãâ1', #87 ) ;
#228 = CARTESIAN_POINT ( 'NONE',  ( 0.0000000000000000000, 0.0000000000000000000, 400.0000000000000000 ) ) ;
#229 = FACE_OUTER_BOUND ( 'NONE', #53, .T. ) ;
#230 = EDGE_LOOP ( 'NONE', ( #95, #208, #155, #57 ) ) ;
#231 = EDGE_LOOP ( 'NONE', ( #18, #35 ) ) ;
#232 = CC_DESIGN_PERSON_AND_ORGANIZATION_ASSIGNMENT ( #201, #31, ( #97 ) ) ;
#233 = DIRECTION ( 'NONE',  ( -0.0000000000000000000, -0.0000000000000000000, -1.000000000000000000 ) ) ;
#234 = CARTESIAN_POINT ( 'NONE',  ( -11.97500000000000142, 0.0000000000000000000, 400.0000000000000000 ) ) ;
#235 = CIRCLE ( 'NONE', #161, 9.750000000000001776 ) ;
#236 = LOCAL_TIME ( 17, 40, 56.00000000000000000, #244 ) ;
#237 = DIRECTION ( 'NONE',  ( 0.0000000000000000000, 0.0000000000000000000, 1.000000000000000000 ) ) ;
#238 = PRODUCT_RELATED_PRODUCT_CATEGORY ( 'detail', '', ( #173 ) ) ;
#239 = FACE_OUTER_BOUND ( 'NONE', #20, .T. ) ;
#240 = CARTESIAN_POINT ( 'NONE',  ( 0.0000000000000000000, 0.0000000000000000000, 0.0000000000000000000 ) ) ;
#241 = ORGANIZATION ( 'UNSPECIFIED', 'UNSPECIFIED', '' ) ;
#242 = PERSON_AND_ORGANIZATION_ROLE ( 'creator' ) ;
#243 = COORDINATED_UNIVERSAL_TIME_OFFSET ( 9, 0, .AHEAD. ) ;
#244 = COORDINATED_UNIVERSAL_TIME_OFFSET ( 9, 0, .AHEAD. ) ;
#245 = EDGE_CURVE ( 'NONE', #187, #248, #100, .T. ) ;
#246 = CIRCLE ( 'NONE', #102, 11.97500000000000142 ) ;
#247 = ORIENTED_EDGE ( 'NONE', *, *, #28, .F. ) ;
#248 = VERTEX_POINT ( 'NONE', #166 ) ;
#249 = FACE_OUTER_BOUND ( 'NONE', #230, .T. ) ;
ENDSEC;
END-ISO-10303-21;
