ISO-10303-21;
HEADER;
FILE_DESCRIPTION (( 'STEP AP203' ),
    '1' );
FILE_NAME ('PE24-250-(NT)_210125.STEP',
    '2021-01-25T08:38:29',
    ( '' ),
    ( '' ),
    'SwSTEP 2.0',
    'SolidWorks 2019',
    '' );
FILE_SCHEMA (( 'CONFIG_CONTROL_DESIGN' ));
ENDSEC;

DATA;
#1 = ORIENTED_EDGE ( 'NONE', *, *, #226, .F. ) ;
#2 = DIRECTION ( 'NONE',  ( -0.0000000000000000000, -0.0000000000000000000, -1.000000000000000000 ) ) ;
#3 = CIRCLE ( 'NONE', #238, 9.750000000000001776 ) ;
#4 = ADVANCED_FACE ( 'NONE', ( #101, #56 ), #136, .T. ) ;
#5 = UNCERTAINTY_MEASURE_WITH_UNIT (LENGTH_MEASURE( 1.000000000000000082E-05 ), #108, 'distance_accuracy_value', 'NONE');
#6 = AXIS2_PLACEMENT_3D ( 'NONE', #46, #216, #196 ) ;
#7 = PERSON_AND_ORGANIZATION_ROLE ( 'creator' ) ;
#8 = CC_DESIGN_PERSON_AND_ORGANIZATION_ASSIGNMENT ( #184, #7, ( #223 ) ) ;
#9 = VERTEX_POINT ( 'NONE', #160 ) ;
#10 = DATE_TIME_ROLE ( 'creation_date' ) ;
#11 = VERTEX_POINT ( 'NONE', #211 ) ;
#12 = EDGE_CURVE ( 'NONE', #120, #41, #49, .T. ) ;
#13 = SHAPE_DEFINITION_REPRESENTATION ( #102, #37 ) ;
#14 = CC_DESIGN_APPROVAL ( #233, ( #29 ) ) ;
#15 = APPROVAL_ROLE ( '' ) ;
#16 = APPROVAL_ROLE ( '' ) ;
#17 = ORIENTED_EDGE ( 'NONE', *, *, #170, .F. ) ;
#18 = DIRECTION ( 'NONE',  ( 0.0000000000000000000, 0.0000000000000000000, 1.000000000000000000 ) ) ;
#19 = VECTOR ( 'NONE', #26, 1000.000000000000000 ) ;
#20 = DIRECTION ( 'NONE',  ( 0.0000000000000000000, 0.0000000000000000000, 1.000000000000000000 ) ) ;
#21 = CARTESIAN_POINT ( 'NONE',  ( 0.0000000000000000000, 0.0000000000000000000, 250.0000000000000000 ) ) ;
#22 = DIRECTION ( 'NONE',  ( 0.0000000000000000000, 0.0000000000000000000, 1.000000000000000000 ) ) ;
#23 = CARTESIAN_POINT ( 'NONE',  ( 9.750000000000001776, 1.194030629168669667E-15, 250.0000000000000000 ) ) ;
#24 = APPROVAL_PERSON_ORGANIZATION ( #187, #146, #15 ) ;
#25 = EDGE_CURVE ( 'NONE', #41, #120, #110, .T. ) ;
#26 = DIRECTION ( 'NONE',  ( -0.0000000000000000000, -0.0000000000000000000, -1.000000000000000000 ) ) ;
#27 = CYLINDRICAL_SURFACE ( 'NONE', #219, 9.750000000000001776 ) ;
#28 = AXIS2_PLACEMENT_3D ( 'NONE', #21, #231, #126 ) ;
#29 = PRODUCT_DEFINITION ( 'UNKNOWN', '', #223, #217 ) ;
#30 = PERSON_AND_ORGANIZATION ( #246, #38 ) ;
#31 = VECTOR ( 'NONE', #190, 1000.000000000000000 ) ;
#32 = APPROVAL_ROLE ( '' ) ;
#33 = ORIENTED_EDGE ( 'NONE', *, *, #12, .F. ) ;
#34 = DATE_AND_TIME ( #203, #159 ) ;
#35 = EDGE_LOOP ( 'NONE', ( #213, #173 ) ) ;
#36 = PERSON_AND_ORGANIZATION ( #246, #38 ) ;
#37 = ADVANCED_BREP_SHAPE_REPRESENTATION ( 'PE24-250-(NT)_210125', ( #221, #180 ), #117 ) ;
#38 = ORGANIZATION ( 'UNSPECIFIED', 'UNSPECIFIED', '' ) ;
#39 = ORIENTED_EDGE ( 'NONE', *, *, #153, .T. ) ;
#40 = DIRECTION ( 'NONE',  ( 0.0000000000000000000, 0.0000000000000000000, 1.000000000000000000 ) ) ;
#41 = VERTEX_POINT ( 'NONE', #247 ) ;
#42 = AXIS2_PLACEMENT_3D ( 'NONE', #75, #2, #67 ) ;
#43 = ORIENTED_EDGE ( 'NONE', *, *, #48, .F. ) ;
#44 = DIRECTION ( 'NONE',  ( 0.0000000000000000000, 0.0000000000000000000, 1.000000000000000000 ) ) ;
#45 = CC_DESIGN_APPROVAL ( #146, ( #144 ) ) ;
#46 = CARTESIAN_POINT ( 'NONE',  ( 0.0000000000000000000, 0.0000000000000000000, 250.0000000000000000 ) ) ;
#47 =( NAMED_UNIT ( * ) PLANE_ANGLE_UNIT ( ) SI_UNIT ( $, .RADIAN. ) );
#48 = EDGE_CURVE ( 'NONE', #137, #11, #66, .T. ) ;
#49 = CIRCLE ( 'NONE', #205, 11.97500000000000142 ) ;
#50 = APPROVAL_DATE_TIME ( #95, #233 ) ;
#51 = CALENDAR_DATE ( 2021, 25, 1 ) ;
#52 = ORIENTED_EDGE ( 'NONE', *, *, #87, .F. ) ;
#53 = AXIS2_PLACEMENT_3D ( 'NONE', #239, #106, #164 ) ;
#54 = ORIENTED_EDGE ( 'NONE', *, *, #207, .F. ) ;
#55 = ORIENTED_EDGE ( 'NONE', *, *, #170, .T. ) ;
#56 = FACE_BOUND ( 'NONE', #152, .T. ) ;
#57 = AXIS2_PLACEMENT_3D ( 'NONE', #103, #44, #122 ) ;
#58 = ORIENTED_EDGE ( 'NONE', *, *, #226, .T. ) ;
#59 = CARTESIAN_POINT ( 'NONE',  ( 0.0000000000000000000, 0.0000000000000000000, 0.0000000000000000000 ) ) ;
#60 = VERTEX_POINT ( 'NONE', #23 ) ;
#61 = CARTESIAN_POINT ( 'NONE',  ( 0.0000000000000000000, 0.0000000000000000000, 0.0000000000000000000 ) ) ;
#62 = DIRECTION ( 'NONE',  ( 1.000000000000000000, 0.0000000000000000000, 0.0000000000000000000 ) ) ;
#63 = EDGE_CURVE ( 'NONE', #172, #137, #176, .T. ) ;
#64 = DIRECTION ( 'NONE',  ( -1.000000000000000000, 0.0000000000000000000, 0.0000000000000000000 ) ) ;
#65 = DIRECTION ( 'NONE',  ( -1.000000000000000000, 0.0000000000000000000, 0.0000000000000000000 ) ) ;
#66 = CIRCLE ( 'NONE', #182, 9.750000000000001776 ) ;
#67 = DIRECTION ( 'NONE',  ( -1.000000000000000000, 0.0000000000000000000, 0.0000000000000000000 ) ) ;
#68 = PERSON_AND_ORGANIZATION ( #246, #38 ) ;
#69 = ORIENTED_EDGE ( 'NONE', *, *, #207, .T. ) ;
#70 = SECURITY_CLASSIFICATION_LEVEL ( 'unclassified' ) ;
#71 = CC_DESIGN_PERSON_AND_ORGANIZATION_ASSIGNMENT ( #36, #169, ( #223 ) ) ;
#72 = LOCAL_TIME ( 17, 38, 29.00000000000000000, #111 ) ;
#73 = CARTESIAN_POINT ( 'NONE',  ( -11.97500000000000142, 0.0000000000000000000, 250.0000000000000000 ) ) ;
#74 = EDGE_CURVE ( 'NONE', #60, #11, #177, .T. ) ;
#75 = CARTESIAN_POINT ( 'NONE',  ( 0.0000000000000000000, 0.0000000000000000000, 250.0000000000000000 ) ) ;
#76 = ORIENTED_EDGE ( 'NONE', *, *, #63, .F. ) ;
#77 = CIRCLE ( 'NONE', #200, 11.97500000000000142 ) ;
#78 = DIRECTION ( 'NONE',  ( 1.000000000000000000, 0.0000000000000000000, 0.0000000000000000000 ) ) ;
#79 = DIRECTION ( 'NONE',  ( 0.0000000000000000000, 0.0000000000000000000, 1.000000000000000000 ) ) ;
#80 = DIRECTION ( 'NONE',  ( 0.0000000000000000000, 0.0000000000000000000, 1.000000000000000000 ) ) ;
#81 = ADVANCED_FACE ( 'NONE', ( #214 ), #178, .T. ) ;
#82 = CARTESIAN_POINT ( 'NONE',  ( 0.0000000000000000000, 0.0000000000000000000, 0.0000000000000000000 ) ) ;
#83 = ADVANCED_FACE ( 'NONE', ( #193, #99 ), #161, .F. ) ;
#84 = CYLINDRICAL_SURFACE ( 'NONE', #194, 11.97500000000000142 ) ;
#85 = CARTESIAN_POINT ( 'NONE',  ( 0.0000000000000000000, 0.0000000000000000000, 250.0000000000000000 ) ) ;
#86 = CLOSED_SHELL ( 'NONE', ( #179, #81, #4, #83, #150, #148 ) ) ;
#87 = EDGE_CURVE ( 'NONE', #11, #137, #3, .T. ) ;
#88 = ORIENTED_EDGE ( 'NONE', *, *, #25, .F. ) ;
#89 = CALENDAR_DATE ( 2021, 25, 1 ) ;
#90 = ORIENTED_EDGE ( 'NONE', *, *, #87, .T. ) ;
#91 = PRODUCT_RELATED_PRODUCT_CATEGORY ( 'detail', '', ( #107 ) ) ;
#92 = PERSON_AND_ORGANIZATION ( #246, #38 ) ;
#93 = CIRCLE ( 'NONE', #53, 11.97500000000000142 ) ;
#94 = APPROVAL_DATE_TIME ( #202, #146 ) ;
#95 = DATE_AND_TIME ( #201, #72 ) ;
#96 = CARTESIAN_POINT ( 'NONE',  ( 11.97500000000000142, 1.466514541978955608E-15, 0.0000000000000000000 ) ) ;
#97 = APPLICATION_CONTEXT ( 'configuration controlled 3d designs of mechanical parts and assemblies' ) ;
#98 = CIRCLE ( 'NONE', #6, 9.750000000000001776 ) ;
#99 = FACE_BOUND ( 'NONE', #228, .T. ) ;
#100 = CARTESIAN_POINT ( 'NONE',  ( 0.0000000000000000000, 0.0000000000000000000, 250.0000000000000000 ) ) ;
#101 = FACE_OUTER_BOUND ( 'NONE', #248, .T. ) ;
#102 = PRODUCT_DEFINITION_SHAPE ( 'NONE', 'NONE',  #29 ) ;
#103 = CARTESIAN_POINT ( 'NONE',  ( 0.0000000000000000000, 0.0000000000000000000, 250.0000000000000000 ) ) ;
#104 = APPROVAL ( #224, 'UNSPECIFIED' ) ;
#105 = DIRECTION ( 'NONE',  ( 0.0000000000000000000, 0.0000000000000000000, 1.000000000000000000 ) ) ;
#106 = DIRECTION ( 'NONE',  ( 0.0000000000000000000, 0.0000000000000000000, 1.000000000000000000 ) ) ;
#107 = PRODUCT ( 'PE24-250-(NT)_210125', 'PE24-250-(NT)_210125', '', ( #132 ) ) ;
#108 =( LENGTH_UNIT ( ) NAMED_UNIT ( * ) SI_UNIT ( .MILLI., .METRE. ) );
#109 = DIRECTION ( 'NONE',  ( -0.0000000000000000000, -0.0000000000000000000, -1.000000000000000000 ) ) ;
#110 = CIRCLE ( 'NONE', #142, 11.97500000000000142 ) ;
#111 = COORDINATED_UNIVERSAL_TIME_OFFSET ( 9, 0, .AHEAD. ) ;
#112 = EDGE_LOOP ( 'NONE', ( #157, #55, #242, #52 ) ) ;
#113 = COORDINATED_UNIVERSAL_TIME_OFFSET ( 9, 0, .AHEAD. ) ;
#114 = ORIENTED_EDGE ( 'NONE', *, *, #74, .T. ) ;
#115 = COORDINATED_UNIVERSAL_TIME_OFFSET ( 9, 0, .AHEAD. ) ;
#116 = VERTEX_POINT ( 'NONE', #96 ) ;
#117 =( GEOMETRIC_REPRESENTATION_CONTEXT ( 3 ) GLOBAL_UNCERTAINTY_ASSIGNED_CONTEXT ( ( #5 ) ) GLOBAL_UNIT_ASSIGNED_CONTEXT ( ( #108, #47, #198 ) ) REPRESENTATION_CONTEXT ( 'NONE', 'WORKASPACE' ) );
#118 = CC_DESIGN_PERSON_AND_ORGANIZATION_ASSIGNMENT ( #119, #171, ( #144 ) ) ;
#119 = PERSON_AND_ORGANIZATION ( #246, #38 ) ;
#120 = VERTEX_POINT ( 'NONE', #73 ) ;
#121 = DIRECTION ( 'NONE',  ( 1.000000000000000000, 0.0000000000000000000, -0.0000000000000000000 ) ) ;
#122 = DIRECTION ( 'NONE',  ( 1.000000000000000000, 0.0000000000000000000, -0.0000000000000000000 ) ) ;
#123 = APPROVAL_PERSON_ORGANIZATION ( #68, #104, #32 ) ;
#124 = ORIENTED_EDGE ( 'NONE', *, *, #210, .T. ) ;
#125 = CARTESIAN_POINT ( 'NONE',  ( 0.0000000000000000000, 0.0000000000000000000, 250.0000000000000000 ) ) ;
#126 = DIRECTION ( 'NONE',  ( -1.000000000000000000, 0.0000000000000000000, 0.0000000000000000000 ) ) ;
#127 = CC_DESIGN_DATE_AND_TIME_ASSIGNMENT ( #147, #222, ( #144 ) ) ;
#128 = FACE_OUTER_BOUND ( 'NONE', #208, .T. ) ;
#129 = CARTESIAN_POINT ( 'NONE',  ( -9.750000000000001776, 0.0000000000000000000, 250.0000000000000000 ) ) ;
#130 = CARTESIAN_POINT ( 'NONE',  ( 11.97500000000000142, 1.466514541978955608E-15, 250.0000000000000000 ) ) ;
#131 = APPROVAL_DATE_TIME ( #34, #104 ) ;
#132 = MECHANICAL_CONTEXT ( 'NONE', #97, 'mechanical' ) ;
#133 = APPROVAL_STATUS ( 'not_yet_approved' ) ;
#134 = EDGE_LOOP ( 'NONE', ( #183, #33, #69, #155 ) ) ;
#135 = COORDINATED_UNIVERSAL_TIME_OFFSET ( 9, 0, .AHEAD. ) ;
#136 = PLANE ( 'NONE',  #57 ) ;
#137 = VERTEX_POINT ( 'NONE', #229 ) ;
#138 = AXIS2_PLACEMENT_3D ( 'NONE', #235, #80, #220 ) ;
#139 = APPLICATION_CONTEXT ( 'configuration controlled 3d designs of mechanical parts and assemblies' ) ;
#140 = DIRECTION ( 'NONE',  ( 1.000000000000000000, 0.0000000000000000000, 0.0000000000000000000 ) ) ;
#141 = DIRECTION ( 'NONE',  ( 1.000000000000000000, 0.0000000000000000000, 0.0000000000000000000 ) ) ;
#142 = AXIS2_PLACEMENT_3D ( 'NONE', #125, #79, #78 ) ;
#143 = DIRECTION ( 'NONE',  ( 0.0000000000000000000, 0.0000000000000000000, 1.000000000000000000 ) ) ;
#144 = SECURITY_CLASSIFICATION ( '', '', #70 ) ;
#145 = CARTESIAN_POINT ( 'NONE',  ( -11.97500000000000142, 0.0000000000000000000, 250.0000000000000000 ) ) ;
#146 = APPROVAL ( #133, 'UNSPECIFIED' ) ;
#147 = DATE_AND_TIME ( #51, #234 ) ;
#148 = ADVANCED_FACE ( 'NONE', ( #209 ), #175, .F. ) ;
#149 = COORDINATED_UNIVERSAL_TIME_OFFSET ( 9, 0, .AHEAD. ) ;
#150 = ADVANCED_FACE ( 'NONE', ( #237 ), #84, .T. ) ;
#151 = DATE_AND_TIME ( #89, #165 ) ;
#152 = EDGE_LOOP ( 'NONE', ( #1, #17 ) ) ;
#153 = EDGE_CURVE ( 'NONE', #41, #116, #215, .T. ) ;
#154 = VECTOR ( 'NONE', #192, 1000.000000000000000 ) ;
#155 = ORIENTED_EDGE ( 'NONE', *, *, #156, .T. ) ;
#156 = EDGE_CURVE ( 'NONE', #9, #116, #77, .T. ) ;
#157 = ORIENTED_EDGE ( 'NONE', *, *, #74, .F. ) ;
#158 = CARTESIAN_POINT ( 'NONE',  ( -9.750000000000001776, 0.0000000000000000000, 250.0000000000000000 ) ) ;
#159 = LOCAL_TIME ( 17, 38, 29.00000000000000000, #135 ) ;
#160 = CARTESIAN_POINT ( 'NONE',  ( -11.97500000000000142, 0.0000000000000000000, 0.0000000000000000000 ) ) ;
#161 = PLANE ( 'NONE',  #174 ) ;
#162 = APPLICATION_PROTOCOL_DEFINITION ( 'international standard', 'config_control_design', 1994, #97 ) ;
#163 = CC_DESIGN_SECURITY_CLASSIFICATION ( #144, ( #223 ) ) ;
#164 = DIRECTION ( 'NONE',  ( 1.000000000000000000, 0.0000000000000000000, 0.0000000000000000000 ) ) ;
#165 = LOCAL_TIME ( 17, 38, 29.00000000000000000, #113 ) ;
#166 = LINE ( 'NONE', #145, #19 ) ;
#167 = PERSON_AND_ORGANIZATION ( #246, #38 ) ;
#168 = VECTOR ( 'NONE', #197, 1000.000000000000000 ) ;
#169 = PERSON_AND_ORGANIZATION_ROLE ( 'design_supplier' ) ;
#170 = EDGE_CURVE ( 'NONE', #60, #172, #98, .T. ) ;
#171 = PERSON_AND_ORGANIZATION_ROLE ( 'classification_officer' ) ;
#172 = VERTEX_POINT ( 'NONE', #129 ) ;
#173 = ORIENTED_EDGE ( 'NONE', *, *, #210, .F. ) ;
#174 = AXIS2_PLACEMENT_3D ( 'NONE', #232, #40, #121 ) ;
#175 = CYLINDRICAL_SURFACE ( 'NONE', #42, 9.750000000000001776 ) ;
#176 = LINE ( 'NONE', #158, #154 ) ;
#177 = LINE ( 'NONE', #191, #31 ) ;
#178 = CYLINDRICAL_SURFACE ( 'NONE', #28, 11.97500000000000142 ) ;
#179 = ADVANCED_FACE ( 'NONE', ( #128 ), #27, .F. ) ;
#180 = AXIS2_PLACEMENT_3D ( 'NONE', #61, #143, #244 ) ;
#181 = CC_DESIGN_DATE_AND_TIME_ASSIGNMENT ( #151, #10, ( #29 ) ) ;
#182 = AXIS2_PLACEMENT_3D ( 'NONE', #59, #20, #140 ) ;
#183 = ORIENTED_EDGE ( 'NONE', *, *, #153, .F. ) ;
#184 = PERSON_AND_ORGANIZATION ( #246, #38 ) ;
#185 = CALENDAR_DATE ( 2021, 25, 1 ) ;
#186 = CC_DESIGN_PERSON_AND_ORGANIZATION_ASSIGNMENT ( #92, #188, ( #107 ) ) ;
#187 = PERSON_AND_ORGANIZATION ( #246, #38 ) ;
#188 = PERSON_AND_ORGANIZATION_ROLE ( 'design_owner' ) ;
#189 = CARTESIAN_POINT ( 'NONE',  ( 0.0000000000000000000, 0.0000000000000000000, 0.0000000000000000000 ) ) ;
#190 = DIRECTION ( 'NONE',  ( -0.0000000000000000000, -0.0000000000000000000, -1.000000000000000000 ) ) ;
#191 = CARTESIAN_POINT ( 'NONE',  ( 9.750000000000001776, 1.194030629168669667E-15, 250.0000000000000000 ) ) ;
#192 = DIRECTION ( 'NONE',  ( -0.0000000000000000000, -0.0000000000000000000, -1.000000000000000000 ) ) ;
#193 = FACE_OUTER_BOUND ( 'NONE', #35, .T. ) ;
#194 = AXIS2_PLACEMENT_3D ( 'NONE', #236, #109, #64 ) ;
#195 = DIRECTION ( 'NONE',  ( -0.0000000000000000000, -0.0000000000000000000, -1.000000000000000000 ) ) ;
#196 = DIRECTION ( 'NONE',  ( 1.000000000000000000, 0.0000000000000000000, 0.0000000000000000000 ) ) ;
#197 = DIRECTION ( 'NONE',  ( -0.0000000000000000000, -0.0000000000000000000, -1.000000000000000000 ) ) ;
#198 =( NAMED_UNIT ( * ) SI_UNIT ( $, .STERADIAN. ) SOLID_ANGLE_UNIT ( ) );
#199 = APPROVAL_STATUS ( 'not_yet_approved' ) ;
#200 = AXIS2_PLACEMENT_3D ( 'NONE', #82, #105, #62 ) ;
#201 = CALENDAR_DATE ( 2021, 25, 1 ) ;
#202 = DATE_AND_TIME ( #185, #243 ) ;
#203 = CALENDAR_DATE ( 2021, 25, 1 ) ;
#204 = APPLICATION_PROTOCOL_DEFINITION ( 'international standard', 'config_control_design', 1994, #139 ) ;
#205 = AXIS2_PLACEMENT_3D ( 'NONE', #100, #22, #141 ) ;
#206 = ORIENTED_EDGE ( 'NONE', *, *, #12, .T. ) ;
#207 = EDGE_CURVE ( 'NONE', #120, #9, #166, .T. ) ;
#208 = EDGE_LOOP ( 'NONE', ( #58, #114, #43, #76 ) ) ;
#209 = FACE_OUTER_BOUND ( 'NONE', #112, .T. ) ;
#210 = EDGE_CURVE ( 'NONE', #116, #9, #93, .T. ) ;
#211 = CARTESIAN_POINT ( 'NONE',  ( 9.750000000000001776, 1.194030629168669667E-15, 0.0000000000000000000 ) ) ;
#212 = APPROVAL_PERSON_ORGANIZATION ( #30, #233, #16 ) ;
#213 = ORIENTED_EDGE ( 'NONE', *, *, #156, .F. ) ;
#214 = FACE_OUTER_BOUND ( 'NONE', #240, .T. ) ;
#215 = LINE ( 'NONE', #130, #168 ) ;
#216 = DIRECTION ( 'NONE',  ( 0.0000000000000000000, 0.0000000000000000000, 1.000000000000000000 ) ) ;
#217 = DESIGN_CONTEXT ( 'detailed design', #139, 'design' ) ;
#218 = CC_DESIGN_PERSON_AND_ORGANIZATION_ASSIGNMENT ( #167, #241, ( #29 ) ) ;
#219 = AXIS2_PLACEMENT_3D ( 'NONE', #85, #195, #65 ) ;
#220 = DIRECTION ( 'NONE',  ( 1.000000000000000000, 0.0000000000000000000, 0.0000000000000000000 ) ) ;
#221 = MANIFOLD_SOLID_BREP ( 'º¸½º-µ¹Ãâ1', #86 ) ;
#222 = DATE_TIME_ROLE ( 'classification_date' ) ;
#223 = PRODUCT_DEFINITION_FORMATION_WITH_SPECIFIED_SOURCE ( 'ANY', '', #107, .NOT_KNOWN. ) ;
#224 = APPROVAL_STATUS ( 'not_yet_approved' ) ;
#225 = ORIENTED_EDGE ( 'NONE', *, *, #48, .T. ) ;
#226 = EDGE_CURVE ( 'NONE', #172, #60, #227, .T. ) ;
#227 = CIRCLE ( 'NONE', #138, 9.750000000000001776 ) ;
#228 = EDGE_LOOP ( 'NONE', ( #225, #90 ) ) ;
#229 = CARTESIAN_POINT ( 'NONE',  ( -9.750000000000001776, 0.0000000000000000000, 0.0000000000000000000 ) ) ;
#230 = ORIENTED_EDGE ( 'NONE', *, *, #25, .T. ) ;
#231 = DIRECTION ( 'NONE',  ( -0.0000000000000000000, -0.0000000000000000000, -1.000000000000000000 ) ) ;
#232 = CARTESIAN_POINT ( 'NONE',  ( 0.0000000000000000000, 0.0000000000000000000, 0.0000000000000000000 ) ) ;
#233 = APPROVAL ( #199, 'UNSPECIFIED' ) ;
#234 = LOCAL_TIME ( 17, 38, 29.00000000000000000, #115 ) ;
#235 = CARTESIAN_POINT ( 'NONE',  ( 0.0000000000000000000, 0.0000000000000000000, 250.0000000000000000 ) ) ;
#236 = CARTESIAN_POINT ( 'NONE',  ( 0.0000000000000000000, 0.0000000000000000000, 250.0000000000000000 ) ) ;
#237 = FACE_OUTER_BOUND ( 'NONE', #134, .T. ) ;
#238 = AXIS2_PLACEMENT_3D ( 'NONE', #189, #18, #245 ) ;
#239 = CARTESIAN_POINT ( 'NONE',  ( 0.0000000000000000000, 0.0000000000000000000, 0.0000000000000000000 ) ) ;
#240 = EDGE_LOOP ( 'NONE', ( #88, #39, #124, #54 ) ) ;
#241 = PERSON_AND_ORGANIZATION_ROLE ( 'creator' ) ;
#242 = ORIENTED_EDGE ( 'NONE', *, *, #63, .T. ) ;
#243 = LOCAL_TIME ( 17, 38, 29.00000000000000000, #149 ) ;
#244 = DIRECTION ( 'NONE',  ( 1.000000000000000000, 0.0000000000000000000, 0.0000000000000000000 ) ) ;
#245 = DIRECTION ( 'NONE',  ( 1.000000000000000000, 0.0000000000000000000, 0.0000000000000000000 ) ) ;
#246 = PERSON ( 'UNSPECIFIED', 'UNSPECIFIED', 'UNSPECIFIED', ('UNSPECIFIED'), ('UNSPECIFIED'), ('UNSPECIFIED') ) ;
#247 = CARTESIAN_POINT ( 'NONE',  ( 11.97500000000000142, 1.466514541978955608E-15, 250.0000000000000000 ) ) ;
#248 = EDGE_LOOP ( 'NONE', ( #206, #230 ) ) ;
#249 = CC_DESIGN_APPROVAL ( #104, ( #223 ) ) ;
ENDSEC;
END-ISO-10303-21;
