ISO-10303-21;
HEADER;
FILE_DESCRIPTION (( 'STEP AP203' ),
    '1' );
FILE_NAME ('PE24-100-(NT)_210125.STEP',
    '2021-01-25T08:15:49',
    ( '' ),
    ( '' ),
    'SwSTEP 2.0',
    'SolidWorks 2019',
    '' );
FILE_SCHEMA (( 'CONFIG_CONTROL_DESIGN' ));
ENDSEC;

DATA;
#1 = CIRCLE ( 'NONE', #90, 9.750000000000001776 ) ;
#2 = VERTEX_POINT ( 'NONE', #206 ) ;
#3 = CARTESIAN_POINT ( 'NONE',  ( -9.750000000000001776, 0.0000000000000000000, 100.0000000000000000 ) ) ;
#4 = ORIENTED_EDGE ( 'NONE', *, *, #96, .T. ) ;
#5 = CARTESIAN_POINT ( 'NONE',  ( 9.750000000000001776, 1.194030629168669667E-15, 0.0000000000000000000 ) ) ;
#6 = CIRCLE ( 'NONE', #173, 9.750000000000001776 ) ;
#7 = DIRECTION ( 'NONE',  ( 0.0000000000000000000, 0.0000000000000000000, 1.000000000000000000 ) ) ;
#8 = CARTESIAN_POINT ( 'NONE',  ( -11.97500000000000142, 0.0000000000000000000, 100.0000000000000000 ) ) ;
#9 = SHAPE_DEFINITION_REPRESENTATION ( #202, #212 ) ;
#10 = CARTESIAN_POINT ( 'NONE',  ( 0.0000000000000000000, 0.0000000000000000000, 100.0000000000000000 ) ) ;
#11 = ORGANIZATION ( 'UNSPECIFIED', 'UNSPECIFIED', '' ) ;
#12 = APPROVAL_ROLE ( '' ) ;
#13 = PERSON_AND_ORGANIZATION_ROLE ( 'design_supplier' ) ;
#14 = VECTOR ( 'NONE', #175, 1000.000000000000000 ) ;
#15 = APPROVAL_STATUS ( 'not_yet_approved' ) ;
#16 = CYLINDRICAL_SURFACE ( 'NONE', #146, 9.750000000000001776 ) ;
#17 = CIRCLE ( 'NONE', #233, 9.750000000000001776 ) ;
#18 = EDGE_CURVE ( 'NONE', #60, #2, #204, .T. ) ;
#19 = ADVANCED_FACE ( 'NONE', ( #184 ), #16, .F. ) ;
#20 = ORIENTED_EDGE ( 'NONE', *, *, #96, .F. ) ;
#21 = CARTESIAN_POINT ( 'NONE',  ( 0.0000000000000000000, 0.0000000000000000000, 100.0000000000000000 ) ) ;
#22 = ORIENTED_EDGE ( 'NONE', *, *, #136, .F. ) ;
#23 = DIRECTION ( 'NONE',  ( 1.000000000000000000, 0.0000000000000000000, 0.0000000000000000000 ) ) ;
#24 = CC_DESIGN_PERSON_AND_ORGANIZATION_ASSIGNMENT ( #186, #13, ( #117 ) ) ;
#25 = FACE_OUTER_BOUND ( 'NONE', #160, .T. ) ;
#26 = VECTOR ( 'NONE', #224, 1000.000000000000000 ) ;
#27 = DIRECTION ( 'NONE',  ( -1.000000000000000000, 0.0000000000000000000, 0.0000000000000000000 ) ) ;
#28 = FACE_OUTER_BOUND ( 'NONE', #218, .T. ) ;
#29 = EDGE_CURVE ( 'NONE', #69, #234, #245, .T. ) ;
#30 = PERSON_AND_ORGANIZATION_ROLE ( 'classification_officer' ) ;
#31 = CARTESIAN_POINT ( 'NONE',  ( 9.750000000000001776, 1.194030629168669667E-15, 100.0000000000000000 ) ) ;
#32 = LOCAL_TIME ( 17, 15, 49.00000000000000000, #108 ) ;
#33 = PERSON_AND_ORGANIZATION_ROLE ( 'creator' ) ;
#34 = CARTESIAN_POINT ( 'NONE',  ( 0.0000000000000000000, 0.0000000000000000000, 0.0000000000000000000 ) ) ;
#35 = EDGE_CURVE ( 'NONE', #60, #193, #188, .T. ) ;
#36 = DIRECTION ( 'NONE',  ( 1.000000000000000000, 0.0000000000000000000, 0.0000000000000000000 ) ) ;
#37 = CARTESIAN_POINT ( 'NONE',  ( -11.97500000000000142, 0.0000000000000000000, 100.0000000000000000 ) ) ;
#38 = EDGE_CURVE ( 'NONE', #234, #92, #1, .T. ) ;
#39 = CALENDAR_DATE ( 2021, 25, 1 ) ;
#40 = EDGE_LOOP ( 'NONE', ( #149, #4 ) ) ;
#41 = ORIENTED_EDGE ( 'NONE', *, *, #18, .F. ) ;
#42 = LOCAL_TIME ( 17, 15, 49.00000000000000000, #215 ) ;
#43 = CARTESIAN_POINT ( 'NONE',  ( 11.97500000000000142, 1.466514541978955608E-15, 100.0000000000000000 ) ) ;
#44 = APPROVAL ( #232, 'UNSPECIFIED' ) ;
#45 = DIRECTION ( 'NONE',  ( 1.000000000000000000, 0.0000000000000000000, 0.0000000000000000000 ) ) ;
#46 = LINE ( 'NONE', #47, #14 ) ;
#47 = CARTESIAN_POINT ( 'NONE',  ( 11.97500000000000142, 1.466514541978955608E-15, 100.0000000000000000 ) ) ;
#48 = CC_DESIGN_PERSON_AND_ORGANIZATION_ASSIGNMENT ( #110, #72, ( #101 ) ) ;
#49 = CARTESIAN_POINT ( 'NONE',  ( 0.0000000000000000000, 0.0000000000000000000, 100.0000000000000000 ) ) ;
#50 = VERTEX_POINT ( 'NONE', #161 ) ;
#51 = APPROVAL_DATE_TIME ( #109, #152 ) ;
#52 = DIRECTION ( 'NONE',  ( 0.0000000000000000000, 0.0000000000000000000, 1.000000000000000000 ) ) ;
#53 = DATE_TIME_ROLE ( 'creation_date' ) ;
#54 = PRODUCT_DEFINITION ( 'UNKNOWN', '', #117, #112 ) ;
#55 = CC_DESIGN_APPROVAL ( #162, ( #54 ) ) ;
#56 = MANIFOLD_SOLID_BREP ( 'º¸½º-µ¹Ãâ1', #133 ) ;
#57 = ORIENTED_EDGE ( 'NONE', *, *, #243, .F. ) ;
#58 = CIRCLE ( 'NONE', #205, 11.97500000000000142 ) ;
#59 = DIRECTION ( 'NONE',  ( -0.0000000000000000000, -0.0000000000000000000, -1.000000000000000000 ) ) ;
#60 = VERTEX_POINT ( 'NONE', #8 ) ;
#61 = CIRCLE ( 'NONE', #66, 11.97500000000000142 ) ;
#62 = FACE_OUTER_BOUND ( 'NONE', #118, .T. ) ;
#63 = DIRECTION ( 'NONE',  ( -1.000000000000000000, 0.0000000000000000000, 0.0000000000000000000 ) ) ;
#64 = DIRECTION ( 'NONE',  ( 0.0000000000000000000, 0.0000000000000000000, 1.000000000000000000 ) ) ;
#65 = AXIS2_PLACEMENT_3D ( 'NONE', #81, #145, #23 ) ;
#66 = AXIS2_PLACEMENT_3D ( 'NONE', #34, #229, #36 ) ;
#67 = CALENDAR_DATE ( 2021, 25, 1 ) ;
#68 = DIRECTION ( 'NONE',  ( -1.000000000000000000, 0.0000000000000000000, 0.0000000000000000000 ) ) ;
#69 = VERTEX_POINT ( 'NONE', #179 ) ;
#70 = VECTOR ( 'NONE', #189, 1000.000000000000000 ) ;
#71 = EDGE_CURVE ( 'NONE', #92, #234, #17, .T. ) ;
#72 = PERSON_AND_ORGANIZATION_ROLE ( 'design_owner' ) ;
#73 = APPROVAL_DATE_TIME ( #89, #162 ) ;
#74 = PERSON_AND_ORGANIZATION_ROLE ( 'creator' ) ;
#75 = ORIENTED_EDGE ( 'NONE', *, *, #177, .T. ) ;
#76 = DIRECTION ( 'NONE',  ( 0.0000000000000000000, 0.0000000000000000000, 1.000000000000000000 ) ) ;
#77 = APPROVAL_PERSON_ORGANIZATION ( #134, #44, #135 ) ;
#78 = ADVANCED_FACE ( 'NONE', ( #28, #102 ), #143, .F. ) ;
#79 = VECTOR ( 'NONE', #97, 1000.000000000000000 ) ;
#80 = ORIENTED_EDGE ( 'NONE', *, *, #249, .T. ) ;
#81 = CARTESIAN_POINT ( 'NONE',  ( 0.0000000000000000000, 0.0000000000000000000, 0.0000000000000000000 ) ) ;
#82 = ORIENTED_EDGE ( 'NONE', *, *, #71, .F. ) ;
#83 = AXIS2_PLACEMENT_3D ( 'NONE', #197, #64, #124 ) ;
#84 = CARTESIAN_POINT ( 'NONE',  ( 0.0000000000000000000, 0.0000000000000000000, 100.0000000000000000 ) ) ;
#85 = CARTESIAN_POINT ( 'NONE',  ( 0.0000000000000000000, 0.0000000000000000000, 100.0000000000000000 ) ) ;
#86 = DIRECTION ( 'NONE',  ( 0.0000000000000000000, 0.0000000000000000000, 1.000000000000000000 ) ) ;
#87 = DIRECTION ( 'NONE',  ( 1.000000000000000000, 0.0000000000000000000, 0.0000000000000000000 ) ) ;
#88 = CC_DESIGN_DATE_AND_TIME_ASSIGNMENT ( #93, #53, ( #54 ) ) ;
#89 = DATE_AND_TIME ( #132, #167 ) ;
#90 = AXIS2_PLACEMENT_3D ( 'NONE', #238, #182, #181 ) ;
#91 = CARTESIAN_POINT ( 'NONE',  ( 0.0000000000000000000, 0.0000000000000000000, 0.0000000000000000000 ) ) ;
#92 = VERTEX_POINT ( 'NONE', #237 ) ;
#93 = DATE_AND_TIME ( #231, #141 ) ;
#94 = CIRCLE ( 'NONE', #217, 9.750000000000001776 ) ;
#95 = ORIENTED_EDGE ( 'NONE', *, *, #71, .T. ) ;
#96 = EDGE_CURVE ( 'NONE', #193, #60, #58, .T. ) ;
#97 = DIRECTION ( 'NONE',  ( -0.0000000000000000000, -0.0000000000000000000, -1.000000000000000000 ) ) ;
#98 = ORIENTED_EDGE ( 'NONE', *, *, #190, .F. ) ;
#99 = CARTESIAN_POINT ( 'NONE',  ( 0.0000000000000000000, 0.0000000000000000000, 100.0000000000000000 ) ) ;
#100 = CARTESIAN_POINT ( 'NONE',  ( -9.750000000000001776, 0.0000000000000000000, 100.0000000000000000 ) ) ;
#101 = PRODUCT ( 'PE24-100-(NT)_210125', 'PE24-100-(NT)_210125', '', ( #169 ) ) ;
#102 = FACE_BOUND ( 'NONE', #148, .T. ) ;
#103 = CARTESIAN_POINT ( 'NONE',  ( 0.0000000000000000000, 0.0000000000000000000, 0.0000000000000000000 ) ) ;
#104 = AXIS2_PLACEMENT_3D ( 'NONE', #21, #200, #63 ) ;
#105 = CALENDAR_DATE ( 2021, 25, 1 ) ;
#106 = ORIENTED_EDGE ( 'NONE', *, *, #29, .F. ) ;
#107 = LOCAL_TIME ( 17, 15, 49.00000000000000000, #125 ) ;
#108 = COORDINATED_UNIVERSAL_TIME_OFFSET ( 9, 0, .AHEAD. ) ;
#109 = DATE_AND_TIME ( #67, #32 ) ;
#110 = PERSON_AND_ORGANIZATION ( #241, #11 ) ;
#111 = ORIENTED_EDGE ( 'NONE', *, *, #177, .F. ) ;
#112 = DESIGN_CONTEXT ( 'detailed design', #157, 'design' ) ;
#113 =( NAMED_UNIT ( * ) SI_UNIT ( $, .STERADIAN. ) SOLID_ANGLE_UNIT ( ) );
#114 = DATE_AND_TIME ( #39, #42 ) ;
#115 = CC_DESIGN_PERSON_AND_ORGANIZATION_ASSIGNMENT ( #208, #33, ( #117 ) ) ;
#116 = ORIENTED_EDGE ( 'NONE', *, *, #38, .T. ) ;
#117 = PRODUCT_DEFINITION_FORMATION_WITH_SPECIFIED_SOURCE ( 'ANY', '', #101, .NOT_KNOWN. ) ;
#118 = EDGE_LOOP ( 'NONE', ( #106, #158, #174, #225 ) ) ;
#119 = PLANE ( 'NONE',  #83 ) ;
#120 = CYLINDRICAL_SURFACE ( 'NONE', #104, 9.750000000000001776 ) ;
#121 = AXIS2_PLACEMENT_3D ( 'NONE', #103, #194, #147 ) ;
#122 = EDGE_CURVE ( 'NONE', #193, #50, #46, .T. ) ;
#123 = CYLINDRICAL_SURFACE ( 'NONE', #227, 11.97500000000000142 ) ;
#124 = DIRECTION ( 'NONE',  ( 1.000000000000000000, 0.0000000000000000000, -0.0000000000000000000 ) ) ;
#125 = COORDINATED_UNIVERSAL_TIME_OFFSET ( 9, 0, .AHEAD. ) ;
#126 = DIRECTION ( 'NONE',  ( 0.0000000000000000000, 0.0000000000000000000, 1.000000000000000000 ) ) ;
#127 = DATE_TIME_ROLE ( 'classification_date' ) ;
#128 = EDGE_LOOP ( 'NONE', ( #57, #98 ) ) ;
#129 = APPROVAL_DATE_TIME ( #114, #44 ) ;
#130 = APPROVAL_STATUS ( 'not_yet_approved' ) ;
#131 = COORDINATED_UNIVERSAL_TIME_OFFSET ( 9, 0, .AHEAD. ) ;
#132 = CALENDAR_DATE ( 2021, 25, 1 ) ;
#133 = CLOSED_SHELL ( 'NONE', ( #19, #201, #226, #78, #207, #165 ) ) ;
#134 = PERSON_AND_ORGANIZATION ( #241, #11 ) ;
#135 = APPROVAL_ROLE ( '' ) ;
#136 = EDGE_CURVE ( 'NONE', #171, #92, #221, .T. ) ;
#137 = CC_DESIGN_PERSON_AND_ORGANIZATION_ASSIGNMENT ( #153, #74, ( #54 ) ) ;
#138 = ORIENTED_EDGE ( 'NONE', *, *, #29, .T. ) ;
#139 = EDGE_LOOP ( 'NONE', ( #168, #138, #82, #22 ) ) ;
#140 = DIRECTION ( 'NONE',  ( 1.000000000000000000, 0.0000000000000000000, 0.0000000000000000000 ) ) ;
#141 = LOCAL_TIME ( 17, 15, 49.00000000000000000, #155 ) ;
#142 = ORIENTED_EDGE ( 'NONE', *, *, #122, .F. ) ;
#143 = PLANE ( 'NONE',  #121 ) ;
#144 = PRODUCT_RELATED_PRODUCT_CATEGORY ( 'detail', '', ( #101 ) ) ;
#145 = DIRECTION ( 'NONE',  ( 0.0000000000000000000, 0.0000000000000000000, 1.000000000000000000 ) ) ;
#146 = AXIS2_PLACEMENT_3D ( 'NONE', #10, #242, #68 ) ;
#147 = DIRECTION ( 'NONE',  ( 1.000000000000000000, 0.0000000000000000000, -0.0000000000000000000 ) ) ;
#148 = EDGE_LOOP ( 'NONE', ( #95, #116 ) ) ;
#149 = ORIENTED_EDGE ( 'NONE', *, *, #35, .T. ) ;
#150 = SECURITY_CLASSIFICATION_LEVEL ( 'unclassified' ) ;
#151 = APPROVAL_ROLE ( '' ) ;
#152 = APPROVAL ( #130, 'UNSPECIFIED' ) ;
#153 = PERSON_AND_ORGANIZATION ( #241, #11 ) ;
#154 = APPLICATION_CONTEXT ( 'configuration controlled 3d designs of mechanical parts and assemblies' ) ;
#155 = COORDINATED_UNIVERSAL_TIME_OFFSET ( 9, 0, .AHEAD. ) ;
#156 = CC_DESIGN_APPROVAL ( #44, ( #117 ) ) ;
#157 = APPLICATION_CONTEXT ( 'configuration controlled 3d designs of mechanical parts and assemblies' ) ;
#158 = ORIENTED_EDGE ( 'NONE', *, *, #190, .T. ) ;
#159 = DIRECTION ( 'NONE',  ( 0.0000000000000000000, 0.0000000000000000000, 1.000000000000000000 ) ) ;
#160 = EDGE_LOOP ( 'NONE', ( #142, #236, #196, #75 ) ) ;
#161 = CARTESIAN_POINT ( 'NONE',  ( 11.97500000000000142, 1.466514541978955608E-15, 0.0000000000000000000 ) ) ;
#162 = APPROVAL ( #15, 'UNSPECIFIED' ) ;
#163 = CARTESIAN_POINT ( 'NONE',  ( 0.0000000000000000000, 0.0000000000000000000, 100.0000000000000000 ) ) ;
#164 = DIRECTION ( 'NONE',  ( -0.0000000000000000000, -0.0000000000000000000, -1.000000000000000000 ) ) ;
#165 = ADVANCED_FACE ( 'NONE', ( #62 ), #120, .F. ) ;
#166 = EDGE_LOOP ( 'NONE', ( #20, #176, #80, #41 ) ) ;
#167 = LOCAL_TIME ( 17, 15, 49.00000000000000000, #131 ) ;
#168 = ORIENTED_EDGE ( 'NONE', *, *, #243, .T. ) ;
#169 = MECHANICAL_CONTEXT ( 'NONE', #154, 'mechanical' ) ;
#170 = APPLICATION_PROTOCOL_DEFINITION ( 'international standard', 'config_control_design', 1994, #154 ) ;
#171 = VERTEX_POINT ( 'NONE', #100 ) ;
#172 = CIRCLE ( 'NONE', #65, 11.97500000000000142 ) ;
#173 = AXIS2_PLACEMENT_3D ( 'NONE', #84, #52, #209 ) ;
#174 = ORIENTED_EDGE ( 'NONE', *, *, #136, .T. ) ;
#175 = DIRECTION ( 'NONE',  ( -0.0000000000000000000, -0.0000000000000000000, -1.000000000000000000 ) ) ;
#176 = ORIENTED_EDGE ( 'NONE', *, *, #122, .T. ) ;
#177 = EDGE_CURVE ( 'NONE', #2, #50, #172, .T. ) ;
#178 = FACE_BOUND ( 'NONE', #128, .T. ) ;
#179 = CARTESIAN_POINT ( 'NONE',  ( 9.750000000000001776, 1.194030629168669667E-15, 100.0000000000000000 ) ) ;
#180 = CC_DESIGN_SECURITY_CLASSIFICATION ( #220, ( #117 ) ) ;
#181 = DIRECTION ( 'NONE',  ( 1.000000000000000000, 0.0000000000000000000, 0.0000000000000000000 ) ) ;
#182 = DIRECTION ( 'NONE',  ( 0.0000000000000000000, 0.0000000000000000000, 1.000000000000000000 ) ) ;
#183 = DATE_AND_TIME ( #105, #107 ) ;
#184 = FACE_OUTER_BOUND ( 'NONE', #139, .T. ) ;
#185 = AXIS2_PLACEMENT_3D ( 'NONE', #91, #76, #230 ) ;
#186 = PERSON_AND_ORGANIZATION ( #241, #11 ) ;
#187 = CC_DESIGN_DATE_AND_TIME_ASSIGNMENT ( #183, #127, ( #220 ) ) ;
#188 = CIRCLE ( 'NONE', #199, 11.97500000000000142 ) ;
#189 = DIRECTION ( 'NONE',  ( -0.0000000000000000000, -0.0000000000000000000, -1.000000000000000000 ) ) ;
#190 = EDGE_CURVE ( 'NONE', #69, #171, #94, .T. ) ;
#191 = AXIS2_PLACEMENT_3D ( 'NONE', #163, #59, #219 ) ;
#192 = CC_DESIGN_APPROVAL ( #152, ( #220 ) ) ;
#193 = VERTEX_POINT ( 'NONE', #43 ) ;
#194 = DIRECTION ( 'NONE',  ( 0.0000000000000000000, 0.0000000000000000000, 1.000000000000000000 ) ) ;
#195 =( GEOMETRIC_REPRESENTATION_CONTEXT ( 3 ) GLOBAL_UNCERTAINTY_ASSIGNED_CONTEXT ( ( #211 ) ) GLOBAL_UNIT_ASSIGNED_CONTEXT ( ( #214, #246, #113 ) ) REPRESENTATION_CONTEXT ( 'NONE', 'WORKASPACE' ) );
#196 = ORIENTED_EDGE ( 'NONE', *, *, #18, .T. ) ;
#197 = CARTESIAN_POINT ( 'NONE',  ( 0.0000000000000000000, 0.0000000000000000000, 100.0000000000000000 ) ) ;
#198 = FACE_OUTER_BOUND ( 'NONE', #166, .T. ) ;
#199 = AXIS2_PLACEMENT_3D ( 'NONE', #49, #126, #87 ) ;
#200 = DIRECTION ( 'NONE',  ( -0.0000000000000000000, -0.0000000000000000000, -1.000000000000000000 ) ) ;
#201 = ADVANCED_FACE ( 'NONE', ( #198 ), #235, .T. ) ;
#202 = PRODUCT_DEFINITION_SHAPE ( 'NONE', 'NONE',  #54 ) ;
#203 = DIRECTION ( 'NONE',  ( 1.000000000000000000, 0.0000000000000000000, 0.0000000000000000000 ) ) ;
#204 = LINE ( 'NONE', #37, #70 ) ;
#205 = AXIS2_PLACEMENT_3D ( 'NONE', #85, #7, #140 ) ;
#206 = CARTESIAN_POINT ( 'NONE',  ( -11.97500000000000142, 0.0000000000000000000, 0.0000000000000000000 ) ) ;
#207 = ADVANCED_FACE ( 'NONE', ( #25 ), #123, .T. ) ;
#208 = PERSON_AND_ORGANIZATION ( #241, #11 ) ;
#209 = DIRECTION ( 'NONE',  ( 1.000000000000000000, 0.0000000000000000000, 0.0000000000000000000 ) ) ;
#210 = PERSON_AND_ORGANIZATION ( #241, #11 ) ;
#211 = UNCERTAINTY_MEASURE_WITH_UNIT (LENGTH_MEASURE( 1.000000000000000082E-05 ), #214, 'distance_accuracy_value', 'NONE');
#212 = ADVANCED_BREP_SHAPE_REPRESENTATION ( 'PE24-100-(NT)_210125', ( #56, #185 ), #195 ) ;
#213 = APPROVAL_PERSON_ORGANIZATION ( #210, #162, #151 ) ;
#214 =( LENGTH_UNIT ( ) NAMED_UNIT ( * ) SI_UNIT ( .MILLI., .METRE. ) );
#215 = COORDINATED_UNIVERSAL_TIME_OFFSET ( 9, 0, .AHEAD. ) ;
#216 = ORIENTED_EDGE ( 'NONE', *, *, #249, .F. ) ;
#217 = AXIS2_PLACEMENT_3D ( 'NONE', #222, #159, #45 ) ;
#218 = EDGE_LOOP ( 'NONE', ( #111, #216 ) ) ;
#219 = DIRECTION ( 'NONE',  ( -1.000000000000000000, 0.0000000000000000000, 0.0000000000000000000 ) ) ;
#220 = SECURITY_CLASSIFICATION ( '', '', #150 ) ;
#221 = LINE ( 'NONE', #3, #79 ) ;
#222 = CARTESIAN_POINT ( 'NONE',  ( 0.0000000000000000000, 0.0000000000000000000, 100.0000000000000000 ) ) ;
#223 = CARTESIAN_POINT ( 'NONE',  ( 0.0000000000000000000, 0.0000000000000000000, 0.0000000000000000000 ) ) ;
#224 = DIRECTION ( 'NONE',  ( -0.0000000000000000000, -0.0000000000000000000, -1.000000000000000000 ) ) ;
#225 = ORIENTED_EDGE ( 'NONE', *, *, #38, .F. ) ;
#226 = ADVANCED_FACE ( 'NONE', ( #240, #178 ), #119, .T. ) ;
#227 = AXIS2_PLACEMENT_3D ( 'NONE', #99, #164, #27 ) ;
#228 = PERSON_AND_ORGANIZATION ( #241, #11 ) ;
#229 = DIRECTION ( 'NONE',  ( 0.0000000000000000000, 0.0000000000000000000, 1.000000000000000000 ) ) ;
#230 = DIRECTION ( 'NONE',  ( 1.000000000000000000, 0.0000000000000000000, 0.0000000000000000000 ) ) ;
#231 = CALENDAR_DATE ( 2021, 25, 1 ) ;
#232 = APPROVAL_STATUS ( 'not_yet_approved' ) ;
#233 = AXIS2_PLACEMENT_3D ( 'NONE', #223, #86, #203 ) ;
#234 = VERTEX_POINT ( 'NONE', #5 ) ;
#235 = CYLINDRICAL_SURFACE ( 'NONE', #191, 11.97500000000000142 ) ;
#236 = ORIENTED_EDGE ( 'NONE', *, *, #35, .F. ) ;
#237 = CARTESIAN_POINT ( 'NONE',  ( -9.750000000000001776, 0.0000000000000000000, 0.0000000000000000000 ) ) ;
#238 = CARTESIAN_POINT ( 'NONE',  ( 0.0000000000000000000, 0.0000000000000000000, 0.0000000000000000000 ) ) ;
#239 = CC_DESIGN_PERSON_AND_ORGANIZATION_ASSIGNMENT ( #244, #30, ( #220 ) ) ;
#240 = FACE_OUTER_BOUND ( 'NONE', #40, .T. ) ;
#241 = PERSON ( 'UNSPECIFIED', 'UNSPECIFIED', 'UNSPECIFIED', ('UNSPECIFIED'), ('UNSPECIFIED'), ('UNSPECIFIED') ) ;
#242 = DIRECTION ( 'NONE',  ( -0.0000000000000000000, -0.0000000000000000000, -1.000000000000000000 ) ) ;
#243 = EDGE_CURVE ( 'NONE', #171, #69, #6, .T. ) ;
#244 = PERSON_AND_ORGANIZATION ( #241, #11 ) ;
#245 = LINE ( 'NONE', #31, #26 ) ;
#246 =( NAMED_UNIT ( * ) PLANE_ANGLE_UNIT ( ) SI_UNIT ( $, .RADIAN. ) );
#247 = APPLICATION_PROTOCOL_DEFINITION ( 'international standard', 'config_control_design', 1994, #157 ) ;
#248 = APPROVAL_PERSON_ORGANIZATION ( #228, #152, #12 ) ;
#249 = EDGE_CURVE ( 'NONE', #50, #2, #61, .T. ) ;
ENDSEC;
END-ISO-10303-21;
