ISO-10303-21;
HEADER;
FILE_DESCRIPTION (( 'STEP AP203' ),
    '1' );
FILE_NAME ('PE18-400.STEP',
    '2021-01-25T06:58:13',
    ( '' ),
    ( '' ),
    'SwSTEP 2.0',
    'SolidWorks 2019',
    '' );
FILE_SCHEMA (( 'CONFIG_CONTROL_DESIGN' ));
ENDSEC;

DATA;
#1 = PERSON_AND_ORGANIZATION ( #233, #143 ) ;
#2 =( GEOMETRIC_REPRESENTATION_CONTEXT ( 3 ) GLOBAL_UNCERTAINTY_ASSIGNED_CONTEXT ( ( #109 ) ) GLOBAL_UNIT_ASSIGNED_CONTEXT ( ( #115, #31, #179 ) ) REPRESENTATION_CONTEXT ( 'NONE', 'WORKASPACE' ) );
#3 = CIRCLE ( 'NONE', #26, 6.849999999999998757 ) ;
#4 = DESIGN_CONTEXT ( 'detailed design', #227, 'design' ) ;
#5 = PRODUCT_RELATED_PRODUCT_CATEGORY ( 'detail', '', ( #124 ) ) ;
#6 = CARTESIAN_POINT ( 'NONE',  ( 0.0000000000000000000, 0.0000000000000000000, 400.0000000000000000 ) ) ;
#7 = AXIS2_PLACEMENT_3D ( 'NONE', #128, #88, #199 ) ;
#8 = DIRECTION ( 'NONE',  ( 1.000000000000000000, 0.0000000000000000000, -0.0000000000000000000 ) ) ;
#9 = EDGE_CURVE ( 'NONE', #220, #243, #120, .T. ) ;
#10 = CARTESIAN_POINT ( 'NONE',  ( -9.000000000000000000, 0.0000000000000000000, 400.0000000000000000 ) ) ;
#11 = APPROVAL_PERSON_ORGANIZATION ( #83, #106, #224 ) ;
#12 = FACE_OUTER_BOUND ( 'NONE', #167, .T. ) ;
#13 = ORIENTED_EDGE ( 'NONE', *, *, #41, .F. ) ;
#14 = CARTESIAN_POINT ( 'NONE',  ( 0.0000000000000000000, 0.0000000000000000000, 0.0000000000000000000 ) ) ;
#15 = EDGE_LOOP ( 'NONE', ( #132, #193, #116, #154 ) ) ;
#16 = DIRECTION ( 'NONE',  ( -1.000000000000000000, 0.0000000000000000000, 0.0000000000000000000 ) ) ;
#17 = CC_DESIGN_PERSON_AND_ORGANIZATION_ASSIGNMENT ( #236, #125, ( #124 ) ) ;
#18 = DATE_AND_TIME ( #157, #64 ) ;
#19 = AXIS2_PLACEMENT_3D ( 'NONE', #14, #51, #101 ) ;
#20 = DIRECTION ( 'NONE',  ( -0.0000000000000000000, -0.0000000000000000000, -1.000000000000000000 ) ) ;
#21 = DIRECTION ( 'NONE',  ( -0.0000000000000000000, -0.0000000000000000000, -1.000000000000000000 ) ) ;
#22 = APPROVAL_ROLE ( '' ) ;
#23 = EDGE_CURVE ( 'NONE', #135, #245, #60, .T. ) ;
#24 = EDGE_CURVE ( 'NONE', #243, #220, #147, .T. ) ;
#25 = CIRCLE ( 'NONE', #180, 9.000000000000000000 ) ;
#26 = AXIS2_PLACEMENT_3D ( 'NONE', #151, #221, #205 ) ;
#27 = DIRECTION ( 'NONE',  ( 1.000000000000000000, 0.0000000000000000000, 0.0000000000000000000 ) ) ;
#28 = DIRECTION ( 'NONE',  ( 0.0000000000000000000, 0.0000000000000000000, 1.000000000000000000 ) ) ;
#29 = PLANE ( 'NONE',  #86 ) ;
#30 = SECURITY_CLASSIFICATION ( '', '', #189 ) ;
#31 =( NAMED_UNIT ( * ) PLANE_ANGLE_UNIT ( ) SI_UNIT ( $, .RADIAN. ) );
#32 = EDGE_LOOP ( 'NONE', ( #43, #70 ) ) ;
#33 = CYLINDRICAL_SURFACE ( 'NONE', #178, 9.000000000000000000 ) ;
#34 = DATE_AND_TIME ( #140, #142 ) ;
#35 = DIRECTION ( 'NONE',  ( 1.000000000000000000, 0.0000000000000000000, 0.0000000000000000000 ) ) ;
#36 = CC_DESIGN_PERSON_AND_ORGANIZATION_ASSIGNMENT ( #1, #192, ( #202 ) ) ;
#37 = VECTOR ( 'NONE', #20, 1000.000000000000000 ) ;
#38 = CARTESIAN_POINT ( 'NONE',  ( -9.000000000000000000, 0.0000000000000000000, 400.0000000000000000 ) ) ;
#39 = CALENDAR_DATE ( 2021, 25, 1 ) ;
#40 = EDGE_CURVE ( 'NONE', #165, #243, #190, .T. ) ;
#41 = EDGE_CURVE ( 'NONE', #97, #135, #133, .T. ) ;
#42 = AXIS2_PLACEMENT_3D ( 'NONE', #197, #111, #72 ) ;
#43 = ORIENTED_EDGE ( 'NONE', *, *, #58, .F. ) ;
#44 = MANIFOLD_SOLID_BREP ( 'º¸½º-µ¹Ãâ1', #168 ) ;
#45 = PLANE ( 'NONE',  #107 ) ;
#46 = APPLICATION_CONTEXT ( 'configuration controlled 3d designs of mechanical parts and assemblies' ) ;
#47 = VECTOR ( 'NONE', #21, 1000.000000000000000 ) ;
#48 = CYLINDRICAL_SURFACE ( 'NONE', #213, 9.000000000000000000 ) ;
#49 = FACE_OUTER_BOUND ( 'NONE', #15, .T. ) ;
#50 = CC_DESIGN_DATE_AND_TIME_ASSIGNMENT ( #18, #247, ( #30 ) ) ;
#51 = DIRECTION ( 'NONE',  ( 0.0000000000000000000, 0.0000000000000000000, 1.000000000000000000 ) ) ;
#52 = FACE_OUTER_BOUND ( 'NONE', #73, .T. ) ;
#53 = DATE_AND_TIME ( #134, #174 ) ;
#54 = ORIENTED_EDGE ( 'NONE', *, *, #63, .F. ) ;
#55 = CARTESIAN_POINT ( 'NONE',  ( 0.0000000000000000000, 0.0000000000000000000, 0.0000000000000000000 ) ) ;
#56 = CC_DESIGN_APPROVAL ( #122, ( #202 ) ) ;
#57 = DATE_AND_TIME ( #39, #176 ) ;
#58 = EDGE_CURVE ( 'NONE', #165, #93, #77, .T. ) ;
#59 = PERSON_AND_ORGANIZATION_ROLE ( 'classification_officer' ) ;
#60 = CIRCLE ( 'NONE', #232, 9.000000000000000000 ) ;
#61 = VERTEX_POINT ( 'NONE', #10 ) ;
#62 = CC_DESIGN_APPROVAL ( #85, ( #175 ) ) ;
#63 = EDGE_CURVE ( 'NONE', #245, #135, #198, .T. ) ;
#64 = LOCAL_TIME ( 15, 58, 13.00000000000000000, #81 ) ;
#65 = APPLICATION_PROTOCOL_DEFINITION ( 'international standard', 'config_control_design', 1994, #227 ) ;
#66 = CARTESIAN_POINT ( 'NONE',  ( 9.000000000000000000, 1.102182119232617714E-15, 0.0000000000000000000 ) ) ;
#67 = EDGE_CURVE ( 'NONE', #61, #245, #76, .T. ) ;
#68 = CIRCLE ( 'NONE', #212, 9.000000000000000000 ) ;
#69 = DIRECTION ( 'NONE',  ( 0.0000000000000000000, 0.0000000000000000000, 1.000000000000000000 ) ) ;
#70 = ORIENTED_EDGE ( 'NONE', *, *, #108, .F. ) ;
#71 = CC_DESIGN_APPROVAL ( #106, ( #30 ) ) ;
#72 = DIRECTION ( 'NONE',  ( -1.000000000000000000, 0.0000000000000000000, 0.0000000000000000000 ) ) ;
#73 = EDGE_LOOP ( 'NONE', ( #13, #144, #150, #131 ) ) ;
#74 = CARTESIAN_POINT ( 'NONE',  ( -9.000000000000000000, 0.0000000000000000000, 0.0000000000000000000 ) ) ;
#75 = EDGE_LOOP ( 'NONE', ( #244, #196, #114, #98 ) ) ;
#76 = LINE ( 'NONE', #38, #37 ) ;
#77 = CIRCLE ( 'NONE', #141, 6.849999999999998757 ) ;
#78 = EDGE_LOOP ( 'NONE', ( #182, #234 ) ) ;
#79 = DIRECTION ( 'NONE',  ( 1.000000000000000000, 0.0000000000000000000, 0.0000000000000000000 ) ) ;
#80 = APPROVAL_DATE_TIME ( #34, #122 ) ;
#81 = COORDINATED_UNIVERSAL_TIME_OFFSET ( 9, 0, .AHEAD. ) ;
#82 = VECTOR ( 'NONE', #237, 1000.000000000000000 ) ;
#83 = PERSON_AND_ORGANIZATION ( #233, #143 ) ;
#84 = ADVANCED_FACE ( 'NONE', ( #170, #163 ), #29, .F. ) ;
#85 = APPROVAL ( #110, 'UNSPECIFIED' ) ;
#86 = AXIS2_PLACEMENT_3D ( 'NONE', #241, #148, #218 ) ;
#87 = ADVANCED_BREP_SHAPE_REPRESENTATION ( 'PE18-400', ( #44, #229 ), #2 ) ;
#88 = DIRECTION ( 'NONE',  ( -0.0000000000000000000, -0.0000000000000000000, -1.000000000000000000 ) ) ;
#89 = CARTESIAN_POINT ( 'NONE',  ( 0.0000000000000000000, 0.0000000000000000000, 0.0000000000000000000 ) ) ;
#90 = PRODUCT_DEFINITION_SHAPE ( 'NONE', 'NONE',  #175 ) ;
#91 = CC_DESIGN_PERSON_AND_ORGANIZATION_ASSIGNMENT ( #211, #123, ( #202 ) ) ;
#92 = LOCAL_TIME ( 15, 58, 13.00000000000000000, #158 ) ;
#93 = VERTEX_POINT ( 'NONE', #203 ) ;
#94 = CARTESIAN_POINT ( 'NONE',  ( 0.0000000000000000000, 0.0000000000000000000, 400.0000000000000000 ) ) ;
#95 = CARTESIAN_POINT ( 'NONE',  ( 0.0000000000000000000, 0.0000000000000000000, 0.0000000000000000000 ) ) ;
#96 = DIRECTION ( 'NONE',  ( 0.0000000000000000000, 0.0000000000000000000, 1.000000000000000000 ) ) ;
#97 = VERTEX_POINT ( 'NONE', #185 ) ;
#98 = ORIENTED_EDGE ( 'NONE', *, *, #40, .F. ) ;
#99 = CALENDAR_DATE ( 2021, 25, 1 ) ;
#100 = ORIENTED_EDGE ( 'NONE', *, *, #108, .T. ) ;
#101 = DIRECTION ( 'NONE',  ( 1.000000000000000000, 0.0000000000000000000, 0.0000000000000000000 ) ) ;
#102 = APPROVAL_ROLE ( '' ) ;
#103 = CARTESIAN_POINT ( 'NONE',  ( 0.0000000000000000000, 0.0000000000000000000, 0.0000000000000000000 ) ) ;
#104 = CARTESIAN_POINT ( 'NONE',  ( 0.0000000000000000000, 0.0000000000000000000, 400.0000000000000000 ) ) ;
#105 = PERSON_AND_ORGANIZATION_ROLE ( 'creator' ) ;
#106 = APPROVAL ( #208, 'UNSPECIFIED' ) ;
#107 = AXIS2_PLACEMENT_3D ( 'NONE', #162, #146, #8 ) ;
#108 = EDGE_CURVE ( 'NONE', #93, #165, #3, .T. ) ;
#109 = UNCERTAINTY_MEASURE_WITH_UNIT (LENGTH_MEASURE( 1.000000000000000082E-05 ), #115, 'distance_accuracy_value', 'NONE');
#110 = APPROVAL_STATUS ( 'not_yet_approved' ) ;
#111 = DIRECTION ( 'NONE',  ( -0.0000000000000000000, -0.0000000000000000000, -1.000000000000000000 ) ) ;
#112 = DIRECTION ( 'NONE',  ( 1.000000000000000000, 0.0000000000000000000, 0.0000000000000000000 ) ) ;
#113 = ADVANCED_FACE ( 'NONE', ( #52 ), #33, .T. ) ;
#114 = ORIENTED_EDGE ( 'NONE', *, *, #24, .F. ) ;
#115 =( LENGTH_UNIT ( ) NAMED_UNIT ( * ) SI_UNIT ( .MILLI., .METRE. ) );
#116 = ORIENTED_EDGE ( 'NONE', *, *, #23, .T. ) ;
#117 = DIRECTION ( 'NONE',  ( -0.0000000000000000000, -0.0000000000000000000, -1.000000000000000000 ) ) ;
#118 = PERSON_AND_ORGANIZATION ( #233, #143 ) ;
#119 = ORIENTED_EDGE ( 'NONE', *, *, #40, .T. ) ;
#120 = CIRCLE ( 'NONE', #19, 6.849999999999998757 ) ;
#121 = DIRECTION ( 'NONE',  ( -0.0000000000000000000, -0.0000000000000000000, -1.000000000000000000 ) ) ;
#122 = APPROVAL ( #169, 'UNSPECIFIED' ) ;
#123 = PERSON_AND_ORGANIZATION_ROLE ( 'creator' ) ;
#124 = PRODUCT ( 'PE18-400', 'PE18-400', '', ( #183 ) ) ;
#125 = PERSON_AND_ORGANIZATION_ROLE ( 'design_owner' ) ;
#126 = AXIS2_PLACEMENT_3D ( 'NONE', #55, #209, #35 ) ;
#127 = CC_DESIGN_DATE_AND_TIME_ASSIGNMENT ( #173, #139, ( #175 ) ) ;
#128 = CARTESIAN_POINT ( 'NONE',  ( 0.0000000000000000000, 0.0000000000000000000, 400.0000000000000000 ) ) ;
#129 = DIRECTION ( 'NONE',  ( -1.000000000000000000, 0.0000000000000000000, 0.0000000000000000000 ) ) ;
#130 = DIRECTION ( 'NONE',  ( -0.0000000000000000000, -0.0000000000000000000, -1.000000000000000000 ) ) ;
#131 = ORIENTED_EDGE ( 'NONE', *, *, #63, .T. ) ;
#132 = ORIENTED_EDGE ( 'NONE', *, *, #153, .F. ) ;
#133 = LINE ( 'NONE', #248, #47 ) ;
#134 = CALENDAR_DATE ( 2021, 25, 1 ) ;
#135 = VERTEX_POINT ( 'NONE', #66 ) ;
#136 = ORIENTED_EDGE ( 'NONE', *, *, #153, .T. ) ;
#137 = ORIENTED_EDGE ( 'NONE', *, *, #195, .T. ) ;
#138 = CC_DESIGN_PERSON_AND_ORGANIZATION_ASSIGNMENT ( #118, #59, ( #30 ) ) ;
#139 = DATE_TIME_ROLE ( 'creation_date' ) ;
#140 = CALENDAR_DATE ( 2021, 25, 1 ) ;
#141 = AXIS2_PLACEMENT_3D ( 'NONE', #104, #223, #156 ) ;
#142 = LOCAL_TIME ( 15, 58, 13.00000000000000000, #206 ) ;
#143 = ORGANIZATION ( 'UNSPECIFIED', 'UNSPECIFIED', '' ) ;
#144 = ORIENTED_EDGE ( 'NONE', *, *, #195, .F. ) ;
#145 = PERSON_AND_ORGANIZATION ( #233, #143 ) ;
#146 = DIRECTION ( 'NONE',  ( 0.0000000000000000000, 0.0000000000000000000, 1.000000000000000000 ) ) ;
#147 = CIRCLE ( 'NONE', #191, 6.849999999999998757 ) ;
#148 = DIRECTION ( 'NONE',  ( 0.0000000000000000000, 0.0000000000000000000, 1.000000000000000000 ) ) ;
#149 = CARTESIAN_POINT ( 'NONE',  ( -6.849999999999998757, 0.0000000000000000000, 400.0000000000000000 ) ) ;
#150 = ORIENTED_EDGE ( 'NONE', *, *, #67, .T. ) ;
#151 = CARTESIAN_POINT ( 'NONE',  ( 0.0000000000000000000, 0.0000000000000000000, 400.0000000000000000 ) ) ;
#152 = PERSON_AND_ORGANIZATION ( #233, #143 ) ;
#153 = EDGE_CURVE ( 'NONE', #97, #61, #68, .T. ) ;
#154 = ORIENTED_EDGE ( 'NONE', *, *, #67, .F. ) ;
#155 = CARTESIAN_POINT ( 'NONE',  ( -6.849999999999998757, 0.0000000000000000000, 400.0000000000000000 ) ) ;
#156 = DIRECTION ( 'NONE',  ( 1.000000000000000000, 0.0000000000000000000, 0.0000000000000000000 ) ) ;
#157 = CALENDAR_DATE ( 2021, 25, 1 ) ;
#158 = COORDINATED_UNIVERSAL_TIME_OFFSET ( 9, 0, .AHEAD. ) ;
#159 = VECTOR ( 'NONE', #121, 1000.000000000000000 ) ;
#160 = CARTESIAN_POINT ( 'NONE',  ( -6.849999999999998757, 0.0000000000000000000, 0.0000000000000000000 ) ) ;
#161 = APPROVAL_PERSON_ORGANIZATION ( #145, #85, #102 ) ;
#162 = CARTESIAN_POINT ( 'NONE',  ( 0.0000000000000000000, 0.0000000000000000000, 400.0000000000000000 ) ) ;
#163 = FACE_BOUND ( 'NONE', #78, .T. ) ;
#164 = FACE_OUTER_BOUND ( 'NONE', #75, .T. ) ;
#165 = VERTEX_POINT ( 'NONE', #149 ) ;
#166 = DIRECTION ( 'NONE',  ( 0.0000000000000000000, 0.0000000000000000000, 1.000000000000000000 ) ) ;
#167 = EDGE_LOOP ( 'NONE', ( #137, #136 ) ) ;
#168 = CLOSED_SHELL ( 'NONE', ( #214, #194, #177, #84, #113, #226 ) ) ;
#169 = APPROVAL_STATUS ( 'not_yet_approved' ) ;
#170 = FACE_OUTER_BOUND ( 'NONE', #186, .T. ) ;
#171 = COORDINATED_UNIVERSAL_TIME_OFFSET ( 9, 0, .AHEAD. ) ;
#172 = ORIENTED_EDGE ( 'NONE', *, *, #9, .F. ) ;
#173 = DATE_AND_TIME ( #99, #92 ) ;
#174 = LOCAL_TIME ( 15, 58, 13.00000000000000000, #171 ) ;
#175 = PRODUCT_DEFINITION ( 'UNKNOWN', '', #202, #4 ) ;
#176 = LOCAL_TIME ( 15, 58, 13.00000000000000000, #222 ) ;
#177 = ADVANCED_FACE ( 'NONE', ( #12, #204 ), #45, .T. ) ;
#178 = AXIS2_PLACEMENT_3D ( 'NONE', #187, #117, #16 ) ;
#179 =( NAMED_UNIT ( * ) SI_UNIT ( $, .STERADIAN. ) SOLID_ANGLE_UNIT ( ) );
#180 = AXIS2_PLACEMENT_3D ( 'NONE', #6, #69, #27 ) ;
#181 = APPLICATION_PROTOCOL_DEFINITION ( 'international standard', 'config_control_design', 1994, #46 ) ;
#182 = ORIENTED_EDGE ( 'NONE', *, *, #24, .T. ) ;
#183 = MECHANICAL_CONTEXT ( 'NONE', #46, 'mechanical' ) ;
#184 = ORIENTED_EDGE ( 'NONE', *, *, #188, .F. ) ;
#185 = CARTESIAN_POINT ( 'NONE',  ( 9.000000000000000000, 1.102182119232617714E-15, 400.0000000000000000 ) ) ;
#186 = EDGE_LOOP ( 'NONE', ( #54, #246 ) ) ;
#187 = CARTESIAN_POINT ( 'NONE',  ( 0.0000000000000000000, 0.0000000000000000000, 400.0000000000000000 ) ) ;
#188 = EDGE_CURVE ( 'NONE', #93, #220, #238, .T. ) ;
#189 = SECURITY_CLASSIFICATION_LEVEL ( 'unclassified' ) ;
#190 = LINE ( 'NONE', #155, #159 ) ;
#191 = AXIS2_PLACEMENT_3D ( 'NONE', #95, #166, #207 ) ;
#192 = PERSON_AND_ORGANIZATION_ROLE ( 'design_supplier' ) ;
#193 = ORIENTED_EDGE ( 'NONE', *, *, #41, .T. ) ;
#194 = ADVANCED_FACE ( 'NONE', ( #49 ), #48, .T. ) ;
#195 = EDGE_CURVE ( 'NONE', #61, #97, #25, .T. ) ;
#196 = ORIENTED_EDGE ( 'NONE', *, *, #188, .T. ) ;
#197 = CARTESIAN_POINT ( 'NONE',  ( 0.0000000000000000000, 0.0000000000000000000, 400.0000000000000000 ) ) ;
#198 = CIRCLE ( 'NONE', #126, 9.000000000000000000 ) ;
#199 = DIRECTION ( 'NONE',  ( -1.000000000000000000, 0.0000000000000000000, 0.0000000000000000000 ) ) ;
#200 = FACE_OUTER_BOUND ( 'NONE', #230, .T. ) ;
#201 = CARTESIAN_POINT ( 'NONE',  ( 6.849999999999998757, 8.388830574159367904E-16, 400.0000000000000000 ) ) ;
#202 = PRODUCT_DEFINITION_FORMATION_WITH_SPECIFIED_SOURCE ( 'ANY', '', #124, .NOT_KNOWN. ) ;
#203 = CARTESIAN_POINT ( 'NONE',  ( 6.849999999999998757, 8.388830574159367904E-16, 400.0000000000000000 ) ) ;
#204 = FACE_BOUND ( 'NONE', #32, .T. ) ;
#205 = DIRECTION ( 'NONE',  ( 1.000000000000000000, 0.0000000000000000000, 0.0000000000000000000 ) ) ;
#206 = COORDINATED_UNIVERSAL_TIME_OFFSET ( 9, 0, .AHEAD. ) ;
#207 = DIRECTION ( 'NONE',  ( 1.000000000000000000, 0.0000000000000000000, 0.0000000000000000000 ) ) ;
#208 = APPROVAL_STATUS ( 'not_yet_approved' ) ;
#209 = DIRECTION ( 'NONE',  ( 0.0000000000000000000, 0.0000000000000000000, 1.000000000000000000 ) ) ;
#210 = APPROVAL_DATE_TIME ( #53, #85 ) ;
#211 = PERSON_AND_ORGANIZATION ( #233, #143 ) ;
#212 = AXIS2_PLACEMENT_3D ( 'NONE', #217, #96, #215 ) ;
#213 = AXIS2_PLACEMENT_3D ( 'NONE', #94, #130, #129 ) ;
#214 = ADVANCED_FACE ( 'NONE', ( #164 ), #219, .F. ) ;
#215 = DIRECTION ( 'NONE',  ( 1.000000000000000000, 0.0000000000000000000, 0.0000000000000000000 ) ) ;
#216 = CC_DESIGN_PERSON_AND_ORGANIZATION_ASSIGNMENT ( #152, #105, ( #175 ) ) ;
#217 = CARTESIAN_POINT ( 'NONE',  ( 0.0000000000000000000, 0.0000000000000000000, 400.0000000000000000 ) ) ;
#218 = DIRECTION ( 'NONE',  ( 1.000000000000000000, 0.0000000000000000000, -0.0000000000000000000 ) ) ;
#219 = CYLINDRICAL_SURFACE ( 'NONE', #7, 6.849999999999998757 ) ;
#220 = VERTEX_POINT ( 'NONE', #240 ) ;
#221 = DIRECTION ( 'NONE',  ( 0.0000000000000000000, 0.0000000000000000000, 1.000000000000000000 ) ) ;
#222 = COORDINATED_UNIVERSAL_TIME_OFFSET ( 9, 0, .AHEAD. ) ;
#223 = DIRECTION ( 'NONE',  ( 0.0000000000000000000, 0.0000000000000000000, 1.000000000000000000 ) ) ;
#224 = APPROVAL_ROLE ( '' ) ;
#225 = DIRECTION ( 'NONE',  ( 0.0000000000000000000, 0.0000000000000000000, 1.000000000000000000 ) ) ;
#226 = ADVANCED_FACE ( 'NONE', ( #200 ), #242, .F. ) ;
#227 = APPLICATION_CONTEXT ( 'configuration controlled 3d designs of mechanical parts and assemblies' ) ;
#228 = APPROVAL_DATE_TIME ( #57, #106 ) ;
#229 = AXIS2_PLACEMENT_3D ( 'NONE', #89, #28, #112 ) ;
#230 = EDGE_LOOP ( 'NONE', ( #184, #100, #119, #172 ) ) ;
#231 = PERSON_AND_ORGANIZATION ( #233, #143 ) ;
#232 = AXIS2_PLACEMENT_3D ( 'NONE', #103, #225, #79 ) ;
#233 = PERSON ( 'UNSPECIFIED', 'UNSPECIFIED', 'UNSPECIFIED', ('UNSPECIFIED'), ('UNSPECIFIED'), ('UNSPECIFIED') ) ;
#234 = ORIENTED_EDGE ( 'NONE', *, *, #9, .T. ) ;
#235 = APPROVAL_PERSON_ORGANIZATION ( #231, #122, #22 ) ;
#236 = PERSON_AND_ORGANIZATION ( #233, #143 ) ;
#237 = DIRECTION ( 'NONE',  ( -0.0000000000000000000, -0.0000000000000000000, -1.000000000000000000 ) ) ;
#238 = LINE ( 'NONE', #201, #82 ) ;
#239 = CC_DESIGN_SECURITY_CLASSIFICATION ( #30, ( #202 ) ) ;
#240 = CARTESIAN_POINT ( 'NONE',  ( 6.849999999999998757, 8.388830574159367904E-16, 0.0000000000000000000 ) ) ;
#241 = CARTESIAN_POINT ( 'NONE',  ( 0.0000000000000000000, 0.0000000000000000000, 0.0000000000000000000 ) ) ;
#242 = CYLINDRICAL_SURFACE ( 'NONE', #42, 6.849999999999998757 ) ;
#243 = VERTEX_POINT ( 'NONE', #160 ) ;
#244 = ORIENTED_EDGE ( 'NONE', *, *, #58, .T. ) ;
#245 = VERTEX_POINT ( 'NONE', #74 ) ;
#246 = ORIENTED_EDGE ( 'NONE', *, *, #23, .F. ) ;
#247 = DATE_TIME_ROLE ( 'classification_date' ) ;
#248 = CARTESIAN_POINT ( 'NONE',  ( 9.000000000000000000, 1.102182119232617714E-15, 400.0000000000000000 ) ) ;
#249 = SHAPE_DEFINITION_REPRESENTATION ( #90, #87 ) ;
ENDSEC;
END-ISO-10303-21;
