ISO-10303-21;
HEADER;
FILE_DESCRIPTION (( 'STEP AP203' ),
    '1' );
FILE_NAME ('PE18-250.STEP',
    '2021-01-25T07:00:36',
    ( '' ),
    ( '' ),
    'SwSTEP 2.0',
    'SolidWorks 2019',
    '' );
FILE_SCHEMA (( 'CONFIG_CONTROL_DESIGN' ));
ENDSEC;

DATA;
#1 = PERSON_AND_ORGANIZATION ( #168, #94 ) ;
#2 = LOCAL_TIME ( 16, 0, 36.00000000000000000, #148 ) ;
#3 = SHAPE_DEFINITION_REPRESENTATION ( #179, #217 ) ;
#4 = AXIS2_PLACEMENT_3D ( 'NONE', #82, #172, #51 ) ;
#5 = CC_DESIGN_PERSON_AND_ORGANIZATION_ASSIGNMENT ( #44, #120, ( #218 ) ) ;
#6 = ORIENTED_EDGE ( 'NONE', *, *, #45, .F. ) ;
#7 = APPLICATION_PROTOCOL_DEFINITION ( 'international standard', 'config_control_design', 1994, #231 ) ;
#8 = LINE ( 'NONE', #189, #133 ) ;
#9 = ORIENTED_EDGE ( 'NONE', *, *, #71, .F. ) ;
#10 = DIRECTION ( 'NONE',  ( 0.0000000000000000000, 0.0000000000000000000, 1.000000000000000000 ) ) ;
#11 = FACE_OUTER_BOUND ( 'NONE', #221, .T. ) ;
#12 = CARTESIAN_POINT ( 'NONE',  ( -9.000000000000000000, 0.0000000000000000000, 0.0000000000000000000 ) ) ;
#13 = FACE_OUTER_BOUND ( 'NONE', #98, .T. ) ;
#14 = DIRECTION ( 'NONE',  ( -0.0000000000000000000, -0.0000000000000000000, -1.000000000000000000 ) ) ;
#15 = CARTESIAN_POINT ( 'NONE',  ( -6.849999999999998757, 0.0000000000000000000, 250.0000000000000000 ) ) ;
#16 = AXIS2_PLACEMENT_3D ( 'NONE', #244, #84, #107 ) ;
#17 = MANIFOLD_SOLID_BREP ( 'º¸½º-µ¹Ãâ1', #176 ) ;
#18 = ORIENTED_EDGE ( 'NONE', *, *, #232, .T. ) ;
#19 = DIRECTION ( 'NONE',  ( 1.000000000000000000, 0.0000000000000000000, 0.0000000000000000000 ) ) ;
#20 = APPROVAL ( #96, 'UNSPECIFIED' ) ;
#21 = PERSON_AND_ORGANIZATION ( #168, #94 ) ;
#22 = LOCAL_TIME ( 16, 0, 36.00000000000000000, #220 ) ;
#23 = APPROVAL_DATE_TIME ( #197, #20 ) ;
#24 = AXIS2_PLACEMENT_3D ( 'NONE', #159, #169, #19 ) ;
#25 = ADVANCED_FACE ( 'NONE', ( #13 ), #106, .F. ) ;
#26 = EDGE_LOOP ( 'NONE', ( #108, #18 ) ) ;
#27 = CC_DESIGN_PERSON_AND_ORGANIZATION_ASSIGNMENT ( #1, #76, ( #36 ) ) ;
#28 = EDGE_CURVE ( 'NONE', #102, #29, #183, .T. ) ;
#29 = VERTEX_POINT ( 'NONE', #175 ) ;
#30 = PLANE ( 'NONE',  #165 ) ;
#31 = APPLICATION_PROTOCOL_DEFINITION ( 'international standard', 'config_control_design', 1994, #158 ) ;
#32 = VERTEX_POINT ( 'NONE', #15 ) ;
#33 = CARTESIAN_POINT ( 'NONE',  ( 0.0000000000000000000, 0.0000000000000000000, 250.0000000000000000 ) ) ;
#34 = EDGE_LOOP ( 'NONE', ( #178, #187, #239, #135 ) ) ;
#35 = FACE_BOUND ( 'NONE', #80, .T. ) ;
#36 = PRODUCT_DEFINITION_FORMATION_WITH_SPECIFIED_SOURCE ( 'ANY', '', #203, .NOT_KNOWN. ) ;
#37 = CYLINDRICAL_SURFACE ( 'NONE', #74, 6.849999999999998757 ) ;
#38 = VERTEX_POINT ( 'NONE', #132 ) ;
#39 = AXIS2_PLACEMENT_3D ( 'NONE', #229, #226, #52 ) ;
#40 = CALENDAR_DATE ( 2021, 25, 1 ) ;
#41 = CALENDAR_DATE ( 2021, 25, 1 ) ;
#42 = ADVANCED_FACE ( 'NONE', ( #53 ), #37, .F. ) ;
#43 = LOCAL_TIME ( 16, 0, 36.00000000000000000, #127 ) ;
#44 = PERSON_AND_ORGANIZATION ( #168, #94 ) ;
#45 = EDGE_CURVE ( 'NONE', #38, #32, #163, .T. ) ;
#46 = AXIS2_PLACEMENT_3D ( 'NONE', #190, #248, #83 ) ;
#47 = DIRECTION ( 'NONE',  ( 0.0000000000000000000, 0.0000000000000000000, 1.000000000000000000 ) ) ;
#48 = DIRECTION ( 'NONE',  ( -0.0000000000000000000, -0.0000000000000000000, -1.000000000000000000 ) ) ;
#49 = CARTESIAN_POINT ( 'NONE',  ( 6.849999999999998757, 8.388830574159367904E-16, 0.0000000000000000000 ) ) ;
#50 = DIRECTION ( 'NONE',  ( 1.000000000000000000, 0.0000000000000000000, 0.0000000000000000000 ) ) ;
#51 = DIRECTION ( 'NONE',  ( -1.000000000000000000, 0.0000000000000000000, 0.0000000000000000000 ) ) ;
#52 = DIRECTION ( 'NONE',  ( -1.000000000000000000, 0.0000000000000000000, 0.0000000000000000000 ) ) ;
#53 = FACE_OUTER_BOUND ( 'NONE', #34, .T. ) ;
#54 = PERSON_AND_ORGANIZATION_ROLE ( 'design_owner' ) ;
#55 = COORDINATED_UNIVERSAL_TIME_OFFSET ( 9, 0, .AHEAD. ) ;
#56 = AXIS2_PLACEMENT_3D ( 'NONE', #247, #70, #242 ) ;
#57 = ORIENTED_EDGE ( 'NONE', *, *, #103, .T. ) ;
#58 = ADVANCED_FACE ( 'NONE', ( #11 ), #177, .T. ) ;
#59 = LOCAL_TIME ( 16, 0, 36.00000000000000000, #137 ) ;
#60 = AXIS2_PLACEMENT_3D ( 'NONE', #193, #209, #129 ) ;
#61 = PERSON_AND_ORGANIZATION_ROLE ( 'creator' ) ;
#62 = EDGE_LOOP ( 'NONE', ( #9, #154, #237, #196 ) ) ;
#63 = CYLINDRICAL_SURFACE ( 'NONE', #39, 9.000000000000000000 ) ;
#64 = CC_DESIGN_DATE_AND_TIME_ASSIGNMENT ( #236, #143, ( #87 ) ) ;
#65 = APPROVAL_ROLE ( '' ) ;
#66 = DIRECTION ( 'NONE',  ( 0.0000000000000000000, 0.0000000000000000000, 1.000000000000000000 ) ) ;
#67 = DIRECTION ( 'NONE',  ( -0.0000000000000000000, -0.0000000000000000000, -1.000000000000000000 ) ) ;
#68 = CARTESIAN_POINT ( 'NONE',  ( 0.0000000000000000000, 0.0000000000000000000, 250.0000000000000000 ) ) ;
#69 = CARTESIAN_POINT ( 'NONE',  ( -9.000000000000000000, 0.0000000000000000000, 250.0000000000000000 ) ) ;
#70 = DIRECTION ( 'NONE',  ( 0.0000000000000000000, 0.0000000000000000000, 1.000000000000000000 ) ) ;
#71 = EDGE_CURVE ( 'NONE', #29, #102, #222, .T. ) ;
#72 =( NAMED_UNIT ( * ) PLANE_ANGLE_UNIT ( ) SI_UNIT ( $, .RADIAN. ) );
#73 = DATE_TIME_ROLE ( 'classification_date' ) ;
#74 = AXIS2_PLACEMENT_3D ( 'NONE', #68, #48, #88 ) ;
#75 = EDGE_CURVE ( 'NONE', #113, #77, #112, .T. ) ;
#76 = PERSON_AND_ORGANIZATION_ROLE ( 'creator' ) ;
#77 = VERTEX_POINT ( 'NONE', #12 ) ;
#78 = APPROVAL ( #215, 'UNSPECIFIED' ) ;
#79 = DIRECTION ( 'NONE',  ( -0.0000000000000000000, -0.0000000000000000000, -1.000000000000000000 ) ) ;
#80 = EDGE_LOOP ( 'NONE', ( #89, #6 ) ) ;
#81 = DIRECTION ( 'NONE',  ( 1.000000000000000000, 0.0000000000000000000, 0.0000000000000000000 ) ) ;
#82 = CARTESIAN_POINT ( 'NONE',  ( 0.0000000000000000000, 0.0000000000000000000, 250.0000000000000000 ) ) ;
#83 = DIRECTION ( 'NONE',  ( -1.000000000000000000, 0.0000000000000000000, 0.0000000000000000000 ) ) ;
#84 = DIRECTION ( 'NONE',  ( 0.0000000000000000000, 0.0000000000000000000, 1.000000000000000000 ) ) ;
#85 = VECTOR ( 'NONE', #67, 1000.000000000000000 ) ;
#86 = EDGE_CURVE ( 'NONE', #201, #152, #202, .T. ) ;
#87 = PRODUCT_DEFINITION ( 'UNKNOWN', '', #36, #114 ) ;
#88 = DIRECTION ( 'NONE',  ( -1.000000000000000000, 0.0000000000000000000, 0.0000000000000000000 ) ) ;
#89 = ORIENTED_EDGE ( 'NONE', *, *, #162, .F. ) ;
#90 = DATE_AND_TIME ( #40, #43 ) ;
#91 = APPROVAL_ROLE ( '' ) ;
#92 = LOCAL_TIME ( 16, 0, 36.00000000000000000, #55 ) ;
#93 = APPROVAL_STATUS ( 'not_yet_approved' ) ;
#94 = ORGANIZATION ( 'UNSPECIFIED', 'UNSPECIFIED', '' ) ;
#95 = EDGE_CURVE ( 'NONE', #29, #113, #134, .T. ) ;
#96 = APPROVAL_STATUS ( 'not_yet_approved' ) ;
#97 = APPROVAL_ROLE ( '' ) ;
#98 = EDGE_LOOP ( 'NONE', ( #210, #149, #167, #192 ) ) ;
#99 = AXIS2_PLACEMENT_3D ( 'NONE', #205, #125, #128 ) ;
#100 = APPROVAL_PERSON_ORGANIZATION ( #118, #116, #91 ) ;
#101 = FACE_BOUND ( 'NONE', #26, .T. ) ;
#102 = VERTEX_POINT ( 'NONE', #212 ) ;
#103 = EDGE_CURVE ( 'NONE', #102, #77, #246, .T. ) ;
#104 = APPROVAL_PERSON_ORGANIZATION ( #171, #78, #65 ) ;
#105 = CARTESIAN_POINT ( 'NONE',  ( 0.0000000000000000000, 0.0000000000000000000, 0.0000000000000000000 ) ) ;
#106 = CYLINDRICAL_SURFACE ( 'NONE', #46, 6.849999999999998757 ) ;
#107 = DIRECTION ( 'NONE',  ( 1.000000000000000000, 0.0000000000000000000, 0.0000000000000000000 ) ) ;
#108 = ORIENTED_EDGE ( 'NONE', *, *, #86, .T. ) ;
#109 = FACE_OUTER_BOUND ( 'NONE', #62, .T. ) ;
#110 = ORIENTED_EDGE ( 'NONE', *, *, #28, .T. ) ;
#111 = PRODUCT_RELATED_PRODUCT_CATEGORY ( 'detail', '', ( #203 ) ) ;
#112 = CIRCLE ( 'NONE', #214, 9.000000000000000000 ) ;
#113 = VERTEX_POINT ( 'NONE', #126 ) ;
#114 = DESIGN_CONTEXT ( 'detailed design', #231, 'design' ) ;
#115 = CARTESIAN_POINT ( 'NONE',  ( 0.0000000000000000000, 0.0000000000000000000, 0.0000000000000000000 ) ) ;
#116 = APPROVAL ( #93, 'UNSPECIFIED' ) ;
#117 = APPROVAL_DATE_TIME ( #184, #116 ) ;
#118 = PERSON_AND_ORGANIZATION ( #168, #94 ) ;
#119 = CIRCLE ( 'NONE', #24, 6.849999999999998757 ) ;
#120 = PERSON_AND_ORGANIZATION_ROLE ( 'classification_officer' ) ;
#121 = EDGE_LOOP ( 'NONE', ( #194, #185 ) ) ;
#122 = CC_DESIGN_PERSON_AND_ORGANIZATION_ASSIGNMENT ( #166, #61, ( #87 ) ) ;
#123 =( LENGTH_UNIT ( ) NAMED_UNIT ( * ) SI_UNIT ( .MILLI., .METRE. ) );
#124 = CARTESIAN_POINT ( 'NONE',  ( 0.0000000000000000000, 0.0000000000000000000, 0.0000000000000000000 ) ) ;
#125 = DIRECTION ( 'NONE',  ( 0.0000000000000000000, 0.0000000000000000000, 1.000000000000000000 ) ) ;
#126 = CARTESIAN_POINT ( 'NONE',  ( 9.000000000000000000, 1.102182119232617714E-15, 0.0000000000000000000 ) ) ;
#127 = COORDINATED_UNIVERSAL_TIME_OFFSET ( 9, 0, .AHEAD. ) ;
#128 = DIRECTION ( 'NONE',  ( 1.000000000000000000, 0.0000000000000000000, 0.0000000000000000000 ) ) ;
#129 = DIRECTION ( 'NONE',  ( 1.000000000000000000, 0.0000000000000000000, -0.0000000000000000000 ) ) ;
#130 = CC_DESIGN_APPROVAL ( #116, ( #218 ) ) ;
#131 = ADVANCED_FACE ( 'NONE', ( #109 ), #63, .T. ) ;
#132 = CARTESIAN_POINT ( 'NONE',  ( 6.849999999999998757, 8.388830574159367904E-16, 250.0000000000000000 ) ) ;
#133 = VECTOR ( 'NONE', #79, 1000.000000000000000 ) ;
#134 = LINE ( 'NONE', #155, #85 ) ;
#135 = ORIENTED_EDGE ( 'NONE', *, *, #232, .F. ) ;
#136 = FACE_OUTER_BOUND ( 'NONE', #121, .T. ) ;
#137 = COORDINATED_UNIVERSAL_TIME_OFFSET ( 9, 0, .AHEAD. ) ;
#138 = VECTOR ( 'NONE', #14, 1000.000000000000000 ) ;
#139 = ADVANCED_FACE ( 'NONE', ( #151, #35 ), #170, .T. ) ;
#140 = CC_DESIGN_SECURITY_CLASSIFICATION ( #218, ( #36 ) ) ;
#141 = AXIS2_PLACEMENT_3D ( 'NONE', #115, #47, #180 ) ;
#142 = EDGE_CURVE ( 'NONE', #32, #201, #240, .T. ) ;
#143 = DATE_TIME_ROLE ( 'creation_date' ) ;
#144 = CC_DESIGN_DATE_AND_TIME_ASSIGNMENT ( #235, #73, ( #218 ) ) ;
#145 = ORIENTED_EDGE ( 'NONE', *, *, #28, .F. ) ;
#146 = APPROVAL_PERSON_ORGANIZATION ( #21, #20, #97 ) ;
#147 = VECTOR ( 'NONE', #153, 1000.000000000000000 ) ;
#148 = COORDINATED_UNIVERSAL_TIME_OFFSET ( 9, 0, .AHEAD. ) ;
#149 = ORIENTED_EDGE ( 'NONE', *, *, #228, .T. ) ;
#150 = DIRECTION ( 'NONE',  ( 1.000000000000000000, 0.0000000000000000000, 0.0000000000000000000 ) ) ;
#151 = FACE_OUTER_BOUND ( 'NONE', #245, .T. ) ;
#152 = VERTEX_POINT ( 'NONE', #49 ) ;
#153 = DIRECTION ( 'NONE',  ( -0.0000000000000000000, -0.0000000000000000000, -1.000000000000000000 ) ) ;
#154 = ORIENTED_EDGE ( 'NONE', *, *, #95, .T. ) ;
#155 = CARTESIAN_POINT ( 'NONE',  ( 9.000000000000000000, 1.102182119232617714E-15, 250.0000000000000000 ) ) ;
#156 = CARTESIAN_POINT ( 'NONE',  ( 0.0000000000000000000, 0.0000000000000000000, 0.0000000000000000000 ) ) ;
#157 = AXIS2_PLACEMENT_3D ( 'NONE', #105, #238, #81 ) ;
#158 = APPLICATION_CONTEXT ( 'configuration controlled 3d designs of mechanical parts and assemblies' ) ;
#159 = CARTESIAN_POINT ( 'NONE',  ( 0.0000000000000000000, 0.0000000000000000000, 0.0000000000000000000 ) ) ;
#160 = UNCERTAINTY_MEASURE_WITH_UNIT (LENGTH_MEASURE( 1.000000000000000082E-05 ), #123, 'distance_accuracy_value', 'NONE');
#161 = SECURITY_CLASSIFICATION_LEVEL ( 'unclassified' ) ;
#162 = EDGE_CURVE ( 'NONE', #32, #38, #219, .T. ) ;
#163 = CIRCLE ( 'NONE', #99, 6.849999999999998757 ) ;
#164 = PERSON_AND_ORGANIZATION_ROLE ( 'design_supplier' ) ;
#165 = AXIS2_PLACEMENT_3D ( 'NONE', #124, #10, #188 ) ;
#166 = PERSON_AND_ORGANIZATION ( #168, #94 ) ;
#167 = ORIENTED_EDGE ( 'NONE', *, *, #86, .F. ) ;
#168 = PERSON ( 'UNSPECIFIED', 'UNSPECIFIED', 'UNSPECIFIED', ('UNSPECIFIED'), ('UNSPECIFIED'), ('UNSPECIFIED') ) ;
#169 = DIRECTION ( 'NONE',  ( 0.0000000000000000000, 0.0000000000000000000, 1.000000000000000000 ) ) ;
#170 = PLANE ( 'NONE',  #60 ) ;
#171 = PERSON_AND_ORGANIZATION ( #168, #94 ) ;
#172 = DIRECTION ( 'NONE',  ( -0.0000000000000000000, -0.0000000000000000000, -1.000000000000000000 ) ) ;
#173 = DIRECTION ( 'NONE',  ( 1.000000000000000000, 0.0000000000000000000, 0.0000000000000000000 ) ) ;
#174 = CC_DESIGN_PERSON_AND_ORGANIZATION_ASSIGNMENT ( #233, #54, ( #203 ) ) ;
#175 = CARTESIAN_POINT ( 'NONE',  ( 9.000000000000000000, 1.102182119232617714E-15, 250.0000000000000000 ) ) ;
#176 = CLOSED_SHELL ( 'NONE', ( #25, #131, #139, #200, #58, #42 ) ) ;
#177 = CYLINDRICAL_SURFACE ( 'NONE', #4, 9.000000000000000000 ) ;
#178 = ORIENTED_EDGE ( 'NONE', *, *, #228, .F. ) ;
#179 = PRODUCT_DEFINITION_SHAPE ( 'NONE', 'NONE',  #87 ) ;
#180 = DIRECTION ( 'NONE',  ( 1.000000000000000000, 0.0000000000000000000, 0.0000000000000000000 ) ) ;
#181 = APPROVAL_DATE_TIME ( #90, #78 ) ;
#182 = CALENDAR_DATE ( 2021, 25, 1 ) ;
#183 = CIRCLE ( 'NONE', #195, 9.000000000000000000 ) ;
#184 = DATE_AND_TIME ( #182, #92 ) ;
#185 = ORIENTED_EDGE ( 'NONE', *, *, #75, .F. ) ;
#186 = CC_DESIGN_APPROVAL ( #78, ( #87 ) ) ;
#187 = ORIENTED_EDGE ( 'NONE', *, *, #45, .T. ) ;
#188 = DIRECTION ( 'NONE',  ( 1.000000000000000000, 0.0000000000000000000, -0.0000000000000000000 ) ) ;
#189 = CARTESIAN_POINT ( 'NONE',  ( 6.849999999999998757, 8.388830574159367904E-16, 250.0000000000000000 ) ) ;
#190 = CARTESIAN_POINT ( 'NONE',  ( 0.0000000000000000000, 0.0000000000000000000, 250.0000000000000000 ) ) ;
#191 = CC_DESIGN_PERSON_AND_ORGANIZATION_ASSIGNMENT ( #199, #164, ( #36 ) ) ;
#192 = ORIENTED_EDGE ( 'NONE', *, *, #142, .F. ) ;
#193 = CARTESIAN_POINT ( 'NONE',  ( 0.0000000000000000000, 0.0000000000000000000, 250.0000000000000000 ) ) ;
#194 = ORIENTED_EDGE ( 'NONE', *, *, #243, .F. ) ;
#195 = AXIS2_PLACEMENT_3D ( 'NONE', #227, #230, #50 ) ;
#196 = ORIENTED_EDGE ( 'NONE', *, *, #103, .F. ) ;
#197 = DATE_AND_TIME ( #41, #59 ) ;
#198 = CIRCLE ( 'NONE', #141, 9.000000000000000000 ) ;
#199 = PERSON_AND_ORGANIZATION ( #168, #94 ) ;
#200 = ADVANCED_FACE ( 'NONE', ( #136, #101 ), #30, .F. ) ;
#201 = VERTEX_POINT ( 'NONE', #204 ) ;
#202 = CIRCLE ( 'NONE', #16, 6.849999999999998757 ) ;
#203 = PRODUCT ( 'PE18-250', 'PE18-250', '', ( #234 ) ) ;
#204 = CARTESIAN_POINT ( 'NONE',  ( -6.849999999999998757, 0.0000000000000000000, 0.0000000000000000000 ) ) ;
#205 = CARTESIAN_POINT ( 'NONE',  ( 0.0000000000000000000, 0.0000000000000000000, 250.0000000000000000 ) ) ;
#206 = DIRECTION ( 'NONE',  ( 0.0000000000000000000, 0.0000000000000000000, 1.000000000000000000 ) ) ;
#207 = ORIENTED_EDGE ( 'NONE', *, *, #95, .F. ) ;
#208 = CC_DESIGN_APPROVAL ( #20, ( #36 ) ) ;
#209 = DIRECTION ( 'NONE',  ( 0.0000000000000000000, 0.0000000000000000000, 1.000000000000000000 ) ) ;
#210 = ORIENTED_EDGE ( 'NONE', *, *, #162, .T. ) ;
#211 =( GEOMETRIC_REPRESENTATION_CONTEXT ( 3 ) GLOBAL_UNCERTAINTY_ASSIGNED_CONTEXT ( ( #160 ) ) GLOBAL_UNIT_ASSIGNED_CONTEXT ( ( #123, #72, #241 ) ) REPRESENTATION_CONTEXT ( 'NONE', 'WORKASPACE' ) );
#212 = CARTESIAN_POINT ( 'NONE',  ( -9.000000000000000000, 0.0000000000000000000, 250.0000000000000000 ) ) ;
#213 = ORIENTED_EDGE ( 'NONE', *, *, #243, .T. ) ;
#214 = AXIS2_PLACEMENT_3D ( 'NONE', #156, #66, #173 ) ;
#215 = APPROVAL_STATUS ( 'not_yet_approved' ) ;
#216 = CALENDAR_DATE ( 2021, 25, 1 ) ;
#217 = ADVANCED_BREP_SHAPE_REPRESENTATION ( 'PE18-250', ( #17, #157 ), #211 ) ;
#218 = SECURITY_CLASSIFICATION ( '', '', #161 ) ;
#219 = CIRCLE ( 'NONE', #249, 6.849999999999998757 ) ;
#220 = COORDINATED_UNIVERSAL_TIME_OFFSET ( 9, 0, .AHEAD. ) ;
#221 = EDGE_LOOP ( 'NONE', ( #207, #145, #57, #213 ) ) ;
#222 = CIRCLE ( 'NONE', #56, 9.000000000000000000 ) ;
#223 = CALENDAR_DATE ( 2021, 25, 1 ) ;
#224 = CARTESIAN_POINT ( 'NONE',  ( -6.849999999999998757, 0.0000000000000000000, 250.0000000000000000 ) ) ;
#225 = ORIENTED_EDGE ( 'NONE', *, *, #71, .T. ) ;
#226 = DIRECTION ( 'NONE',  ( -0.0000000000000000000, -0.0000000000000000000, -1.000000000000000000 ) ) ;
#227 = CARTESIAN_POINT ( 'NONE',  ( 0.0000000000000000000, 0.0000000000000000000, 250.0000000000000000 ) ) ;
#228 = EDGE_CURVE ( 'NONE', #38, #152, #8, .T. ) ;
#229 = CARTESIAN_POINT ( 'NONE',  ( 0.0000000000000000000, 0.0000000000000000000, 250.0000000000000000 ) ) ;
#230 = DIRECTION ( 'NONE',  ( 0.0000000000000000000, 0.0000000000000000000, 1.000000000000000000 ) ) ;
#231 = APPLICATION_CONTEXT ( 'configuration controlled 3d designs of mechanical parts and assemblies' ) ;
#232 = EDGE_CURVE ( 'NONE', #152, #201, #119, .T. ) ;
#233 = PERSON_AND_ORGANIZATION ( #168, #94 ) ;
#234 = MECHANICAL_CONTEXT ( 'NONE', #158, 'mechanical' ) ;
#235 = DATE_AND_TIME ( #216, #22 ) ;
#236 = DATE_AND_TIME ( #223, #2 ) ;
#237 = ORIENTED_EDGE ( 'NONE', *, *, #75, .T. ) ;
#238 = DIRECTION ( 'NONE',  ( 0.0000000000000000000, 0.0000000000000000000, 1.000000000000000000 ) ) ;
#239 = ORIENTED_EDGE ( 'NONE', *, *, #142, .T. ) ;
#240 = LINE ( 'NONE', #224, #138 ) ;
#241 =( NAMED_UNIT ( * ) SI_UNIT ( $, .STERADIAN. ) SOLID_ANGLE_UNIT ( ) );
#242 = DIRECTION ( 'NONE',  ( 1.000000000000000000, 0.0000000000000000000, 0.0000000000000000000 ) ) ;
#243 = EDGE_CURVE ( 'NONE', #77, #113, #198, .T. ) ;
#244 = CARTESIAN_POINT ( 'NONE',  ( 0.0000000000000000000, 0.0000000000000000000, 0.0000000000000000000 ) ) ;
#245 = EDGE_LOOP ( 'NONE', ( #110, #225 ) ) ;
#246 = LINE ( 'NONE', #69, #147 ) ;
#247 = CARTESIAN_POINT ( 'NONE',  ( 0.0000000000000000000, 0.0000000000000000000, 250.0000000000000000 ) ) ;
#248 = DIRECTION ( 'NONE',  ( -0.0000000000000000000, -0.0000000000000000000, -1.000000000000000000 ) ) ;
#249 = AXIS2_PLACEMENT_3D ( 'NONE', #33, #206, #150 ) ;
ENDSEC;
END-ISO-10303-21;
