ISO-10303-21;
HEADER;
FILE_DESCRIPTION (( 'STEP AP203' ),
    '1' );
FILE_NAME ('PE18-100.STEP',
    '2021-01-25T07:02:08',
    ( '' ),
    ( '' ),
    'SwSTEP 2.0',
    'SolidWorks 2019',
    '' );
FILE_SCHEMA (( 'CONFIG_CONTROL_DESIGN' ));
ENDSEC;

DATA;
#1 = PERSON_AND_ORGANIZATION_ROLE ( 'classification_officer' ) ;
#2 = ORIENTED_EDGE ( 'NONE', *, *, #214, .T. ) ;
#3 = APPROVAL_ROLE ( '' ) ;
#4 = DIRECTION ( 'NONE',  ( -0.0000000000000000000, -0.0000000000000000000, -1.000000000000000000 ) ) ;
#5 = CIRCLE ( 'NONE', #124, 6.849999999999998757 ) ;
#6 = EDGE_CURVE ( 'NONE', #162, #42, #71, .T. ) ;
#7 = DATE_AND_TIME ( #89, #216 ) ;
#8 = DIRECTION ( 'NONE',  ( 0.0000000000000000000, 0.0000000000000000000, 1.000000000000000000 ) ) ;
#9 = COORDINATED_UNIVERSAL_TIME_OFFSET ( 9, 0, .AHEAD. ) ;
#10 = CARTESIAN_POINT ( 'NONE',  ( 9.000000000000000000, 1.102182119232617714E-15, 0.0000000000000000000 ) ) ;
#11 = VERTEX_POINT ( 'NONE', #47 ) ;
#12 = PRODUCT_DEFINITION_SHAPE ( 'NONE', 'NONE',  #132 ) ;
#13 = AXIS2_PLACEMENT_3D ( 'NONE', #39, #73, #192 ) ;
#14 = CYLINDRICAL_SURFACE ( 'NONE', #78, 6.849999999999998757 ) ;
#15 = SHAPE_DEFINITION_REPRESENTATION ( #12, #170 ) ;
#16 = LINE ( 'NONE', #94, #174 ) ;
#17 = EDGE_CURVE ( 'NONE', #45, #218, #91, .T. ) ;
#18 = MANIFOLD_SOLID_BREP ( 'º¸½º-µ¹Ãâ1', #245 ) ;
#19 = DIRECTION ( 'NONE',  ( 1.000000000000000000, 0.0000000000000000000, -0.0000000000000000000 ) ) ;
#20 =( GEOMETRIC_REPRESENTATION_CONTEXT ( 3 ) GLOBAL_UNCERTAINTY_ASSIGNED_CONTEXT ( ( #187 ) ) GLOBAL_UNIT_ASSIGNED_CONTEXT ( ( #193, #76, #100 ) ) REPRESENTATION_CONTEXT ( 'NONE', 'WORKASPACE' ) );
#21 = DATE_TIME_ROLE ( 'creation_date' ) ;
#22 = EDGE_LOOP ( 'NONE', ( #141, #72 ) ) ;
#23 = ORIENTED_EDGE ( 'NONE', *, *, #60, .F. ) ;
#24 = EDGE_CURVE ( 'NONE', #11, #218, #99, .T. ) ;
#25 = PERSON_AND_ORGANIZATION ( #68, #77 ) ;
#26 = EDGE_LOOP ( 'NONE', ( #137, #82, #160, #127 ) ) ;
#27 = CIRCLE ( 'NONE', #131, 6.849999999999998757 ) ;
#28 = APPROVAL_STATUS ( 'not_yet_approved' ) ;
#29 = CARTESIAN_POINT ( 'NONE',  ( 0.0000000000000000000, 0.0000000000000000000, 100.0000000000000000 ) ) ;
#30 = CARTESIAN_POINT ( 'NONE',  ( 9.000000000000000000, 1.102182119232617714E-15, 100.0000000000000000 ) ) ;
#31 = CC_DESIGN_APPROVAL ( #233, ( #168 ) ) ;
#32 = APPROVAL ( #28, 'UNSPECIFIED' ) ;
#33 = FACE_OUTER_BOUND ( 'NONE', #52, .T. ) ;
#34 = VECTOR ( 'NONE', #4, 1000.000000000000000 ) ;
#35 = CYLINDRICAL_SURFACE ( 'NONE', #69, 9.000000000000000000 ) ;
#36 = ADVANCED_FACE ( 'NONE', ( #196 ), #202, .F. ) ;
#37 = APPROVAL_PERSON_ORGANIZATION ( #40, #225, #50 ) ;
#38 = CC_DESIGN_PERSON_AND_ORGANIZATION_ASSIGNMENT ( #46, #96, ( #168 ) ) ;
#39 = CARTESIAN_POINT ( 'NONE',  ( 0.0000000000000000000, 0.0000000000000000000, 0.0000000000000000000 ) ) ;
#40 = PERSON_AND_ORGANIZATION ( #68, #77 ) ;
#41 = DIRECTION ( 'NONE',  ( 0.0000000000000000000, 0.0000000000000000000, 1.000000000000000000 ) ) ;
#42 = VERTEX_POINT ( 'NONE', #158 ) ;
#43 = CC_DESIGN_DATE_AND_TIME_ASSIGNMENT ( #66, #21, ( #132 ) ) ;
#44 = PERSON_AND_ORGANIZATION_ROLE ( 'creator' ) ;
#45 = VERTEX_POINT ( 'NONE', #234 ) ;
#46 = PERSON_AND_ORGANIZATION ( #68, #77 ) ;
#47 = CARTESIAN_POINT ( 'NONE',  ( -6.849999999999998757, 0.0000000000000000000, 100.0000000000000000 ) ) ;
#48 = CIRCLE ( 'NONE', #189, 9.000000000000000000 ) ;
#49 = DESIGN_CONTEXT ( 'detailed design', #75, 'design' ) ;
#50 = APPROVAL_ROLE ( '' ) ;
#51 = ORIENTED_EDGE ( 'NONE', *, *, #17, .F. ) ;
#52 = EDGE_LOOP ( 'NONE', ( #207, #240, #65, #180 ) ) ;
#53 = DIRECTION ( 'NONE',  ( 0.0000000000000000000, 0.0000000000000000000, 1.000000000000000000 ) ) ;
#54 = DIRECTION ( 'NONE',  ( 0.0000000000000000000, 0.0000000000000000000, 1.000000000000000000 ) ) ;
#55 = AXIS2_PLACEMENT_3D ( 'NONE', #186, #232, #102 ) ;
#56 = PLANE ( 'NONE',  #111 ) ;
#57 = SECURITY_CLASSIFICATION ( '', '', #176 ) ;
#58 = DIRECTION ( 'NONE',  ( 1.000000000000000000, 0.0000000000000000000, 0.0000000000000000000 ) ) ;
#59 = APPROVAL_DATE_TIME ( #140, #233 ) ;
#60 = EDGE_CURVE ( 'NONE', #11, #106, #5, .T. ) ;
#61 = COORDINATED_UNIVERSAL_TIME_OFFSET ( 9, 0, .AHEAD. ) ;
#62 = ORIENTED_EDGE ( 'NONE', *, *, #157, .F. ) ;
#63 = CARTESIAN_POINT ( 'NONE',  ( 0.0000000000000000000, 0.0000000000000000000, 100.0000000000000000 ) ) ;
#64 = APPROVAL_STATUS ( 'not_yet_approved' ) ;
#65 = ORIENTED_EDGE ( 'NONE', *, *, #157, .T. ) ;
#66 = DATE_AND_TIME ( #195, #135 ) ;
#67 = ORIENTED_EDGE ( 'NONE', *, *, #167, .T. ) ;
#68 = PERSON ( 'UNSPECIFIED', 'UNSPECIFIED', 'UNSPECIFIED', ('UNSPECIFIED'), ('UNSPECIFIED'), ('UNSPECIFIED') ) ;
#69 = AXIS2_PLACEMENT_3D ( 'NONE', #110, #172, #129 ) ;
#70 = EDGE_LOOP ( 'NONE', ( #200, #97, #86, #51 ) ) ;
#71 = CIRCLE ( 'NONE', #55, 9.000000000000000000 ) ;
#72 = ORIENTED_EDGE ( 'NONE', *, *, #17, .T. ) ;
#73 = DIRECTION ( 'NONE',  ( 0.0000000000000000000, 0.0000000000000000000, 1.000000000000000000 ) ) ;
#74 = CARTESIAN_POINT ( 'NONE',  ( -6.849999999999998757, 0.0000000000000000000, 0.0000000000000000000 ) ) ;
#75 = APPLICATION_CONTEXT ( 'configuration controlled 3d designs of mechanical parts and assemblies' ) ;
#76 =( NAMED_UNIT ( * ) PLANE_ANGLE_UNIT ( ) SI_UNIT ( $, .RADIAN. ) );
#77 = ORGANIZATION ( 'UNSPECIFIED', 'UNSPECIFIED', '' ) ;
#78 = AXIS2_PLACEMENT_3D ( 'NONE', #93, #112, #171 ) ;
#79 = DIRECTION ( 'NONE',  ( -0.0000000000000000000, -0.0000000000000000000, -1.000000000000000000 ) ) ;
#80 = CC_DESIGN_DATE_AND_TIME_ASSIGNMENT ( #121, #199, ( #57 ) ) ;
#81 = COORDINATED_UNIVERSAL_TIME_OFFSET ( 9, 0, .AHEAD. ) ;
#82 = ORIENTED_EDGE ( 'NONE', *, *, #247, .T. ) ;
#83 = CALENDAR_DATE ( 2021, 25, 1 ) ;
#84 = DIRECTION ( 'NONE',  ( -0.0000000000000000000, -0.0000000000000000000, -1.000000000000000000 ) ) ;
#85 = APPLICATION_PROTOCOL_DEFINITION ( 'international standard', 'config_control_design', 1994, #75 ) ;
#86 = ORIENTED_EDGE ( 'NONE', *, *, #24, .T. ) ;
#87 = PERSON_AND_ORGANIZATION ( #68, #77 ) ;
#88 = LINE ( 'NONE', #30, #194 ) ;
#89 = CALENDAR_DATE ( 2021, 25, 1 ) ;
#90 = EDGE_LOOP ( 'NONE', ( #67, #166 ) ) ;
#91 = CIRCLE ( 'NONE', #142, 6.849999999999998757 ) ;
#92 = CC_DESIGN_PERSON_AND_ORGANIZATION_ASSIGNMENT ( #136, #44, ( #132 ) ) ;
#93 = CARTESIAN_POINT ( 'NONE',  ( 0.0000000000000000000, 0.0000000000000000000, 100.0000000000000000 ) ) ;
#94 = CARTESIAN_POINT ( 'NONE',  ( 6.849999999999998757, 8.388830574159367904E-16, 100.0000000000000000 ) ) ;
#95 = DIRECTION ( 'NONE',  ( -1.000000000000000000, 0.0000000000000000000, 0.0000000000000000000 ) ) ;
#96 = PERSON_AND_ORGANIZATION_ROLE ( 'design_supplier' ) ;
#97 = ORIENTED_EDGE ( 'NONE', *, *, #108, .T. ) ;
#98 = CARTESIAN_POINT ( 'NONE',  ( 0.0000000000000000000, 0.0000000000000000000, 0.0000000000000000000 ) ) ;
#99 = LINE ( 'NONE', #224, #34 ) ;
#100 =( NAMED_UNIT ( * ) SI_UNIT ( $, .STERADIAN. ) SOLID_ANGLE_UNIT ( ) );
#101 = AXIS2_PLACEMENT_3D ( 'NONE', #242, #128, #19 ) ;
#102 = DIRECTION ( 'NONE',  ( 1.000000000000000000, 0.0000000000000000000, 0.0000000000000000000 ) ) ;
#103 = APPROVAL_ROLE ( '' ) ;
#104 = CARTESIAN_POINT ( 'NONE',  ( 0.0000000000000000000, 0.0000000000000000000, 100.0000000000000000 ) ) ;
#105 = PERSON_AND_ORGANIZATION ( #68, #77 ) ;
#106 = VERTEX_POINT ( 'NONE', #219 ) ;
#107 = CC_DESIGN_APPROVAL ( #225, ( #132 ) ) ;
#108 = EDGE_CURVE ( 'NONE', #106, #11, #151, .T. ) ;
#109 = VERTEX_POINT ( 'NONE', #10 ) ;
#110 = CARTESIAN_POINT ( 'NONE',  ( 0.0000000000000000000, 0.0000000000000000000, 100.0000000000000000 ) ) ;
#111 = AXIS2_PLACEMENT_3D ( 'NONE', #116, #175, #148 ) ;
#112 = DIRECTION ( 'NONE',  ( -0.0000000000000000000, -0.0000000000000000000, -1.000000000000000000 ) ) ;
#113 = EDGE_CURVE ( 'NONE', #162, #109, #88, .T. ) ;
#114 = AXIS2_PLACEMENT_3D ( 'NONE', #29, #84, #182 ) ;
#115 = CYLINDRICAL_SURFACE ( 'NONE', #146, 9.000000000000000000 ) ;
#116 = CARTESIAN_POINT ( 'NONE',  ( 0.0000000000000000000, 0.0000000000000000000, 100.0000000000000000 ) ) ;
#117 = ORIENTED_EDGE ( 'NONE', *, *, #241, .F. ) ;
#118 = APPLICATION_CONTEXT ( 'configuration controlled 3d designs of mechanical parts and assemblies' ) ;
#119 = PERSON_AND_ORGANIZATION ( #68, #77 ) ;
#120 = CARTESIAN_POINT ( 'NONE',  ( 0.0000000000000000000, 0.0000000000000000000, 0.0000000000000000000 ) ) ;
#121 = DATE_AND_TIME ( #83, #201 ) ;
#122 = DIRECTION ( 'NONE',  ( 1.000000000000000000, 0.0000000000000000000, 0.0000000000000000000 ) ) ;
#123 = ADVANCED_FACE ( 'NONE', ( #169, #190 ), #133, .F. ) ;
#124 = AXIS2_PLACEMENT_3D ( 'NONE', #63, #8, #138 ) ;
#125 = EDGE_LOOP ( 'NONE', ( #117, #62 ) ) ;
#126 = APPROVAL_STATUS ( 'not_yet_approved' ) ;
#127 = ORIENTED_EDGE ( 'NONE', *, *, #24, .F. ) ;
#128 = DIRECTION ( 'NONE',  ( 0.0000000000000000000, 0.0000000000000000000, 1.000000000000000000 ) ) ;
#129 = DIRECTION ( 'NONE',  ( -1.000000000000000000, 0.0000000000000000000, 0.0000000000000000000 ) ) ;
#130 = FACE_OUTER_BOUND ( 'NONE', #70, .T. ) ;
#131 = AXIS2_PLACEMENT_3D ( 'NONE', #230, #53, #58 ) ;
#132 = PRODUCT_DEFINITION ( 'UNKNOWN', '', #168, #49 ) ;
#133 = PLANE ( 'NONE',  #101 ) ;
#134 = PERSON_AND_ORGANIZATION_ROLE ( 'creator' ) ;
#135 = LOCAL_TIME ( 16, 2, 8.000000000000000000, #159 ) ;
#136 = PERSON_AND_ORGANIZATION ( #68, #77 ) ;
#137 = ORIENTED_EDGE ( 'NONE', *, *, #60, .T. ) ;
#138 = DIRECTION ( 'NONE',  ( 1.000000000000000000, 0.0000000000000000000, 0.0000000000000000000 ) ) ;
#139 = EDGE_CURVE ( 'NONE', #218, #45, #27, .T. ) ;
#140 = DATE_AND_TIME ( #217, #213 ) ;
#141 = ORIENTED_EDGE ( 'NONE', *, *, #139, .T. ) ;
#142 = AXIS2_PLACEMENT_3D ( 'NONE', #120, #198, #122 ) ;
#143 = DIRECTION ( 'NONE',  ( -0.0000000000000000000, -0.0000000000000000000, -1.000000000000000000 ) ) ;
#144 = PRODUCT ( 'PE18-100', 'PE18-100', '', ( #183 ) ) ;
#145 = VERTEX_POINT ( 'NONE', #226 ) ;
#146 = AXIS2_PLACEMENT_3D ( 'NONE', #231, #79, #95 ) ;
#147 = CARTESIAN_POINT ( 'NONE',  ( 9.000000000000000000, 1.102182119232617714E-15, 100.0000000000000000 ) ) ;
#148 = DIRECTION ( 'NONE',  ( 1.000000000000000000, 0.0000000000000000000, -0.0000000000000000000 ) ) ;
#149 = FACE_BOUND ( 'NONE', #220, .T. ) ;
#150 = ADVANCED_FACE ( 'NONE', ( #33 ), #35, .T. ) ;
#151 = CIRCLE ( 'NONE', #227, 6.849999999999998757 ) ;
#152 = FACE_OUTER_BOUND ( 'NONE', #177, .T. ) ;
#153 = FACE_OUTER_BOUND ( 'NONE', #90, .T. ) ;
#154 = CC_DESIGN_PERSON_AND_ORGANIZATION_ASSIGNMENT ( #119, #134, ( #168 ) ) ;
#155 = DIRECTION ( 'NONE',  ( 1.000000000000000000, 0.0000000000000000000, 0.0000000000000000000 ) ) ;
#156 = ORIENTED_EDGE ( 'NONE', *, *, #241, .T. ) ;
#157 = EDGE_CURVE ( 'NONE', #109, #145, #221, .T. ) ;
#158 = CARTESIAN_POINT ( 'NONE',  ( -9.000000000000000000, 0.0000000000000000000, 100.0000000000000000 ) ) ;
#159 = COORDINATED_UNIVERSAL_TIME_OFFSET ( 9, 0, .AHEAD. ) ;
#160 = ORIENTED_EDGE ( 'NONE', *, *, #139, .F. ) ;
#161 = CALENDAR_DATE ( 2021, 25, 1 ) ;
#162 = VERTEX_POINT ( 'NONE', #147 ) ;
#163 = PRODUCT_RELATED_PRODUCT_CATEGORY ( 'detail', '', ( #144 ) ) ;
#164 = PERSON_AND_ORGANIZATION ( #68, #77 ) ;
#165 = AXIS2_PLACEMENT_3D ( 'NONE', #211, #208, #191 ) ;
#166 = ORIENTED_EDGE ( 'NONE', *, *, #6, .T. ) ;
#167 = EDGE_CURVE ( 'NONE', #42, #162, #48, .T. ) ;
#168 = PRODUCT_DEFINITION_FORMATION_WITH_SPECIFIED_SOURCE ( 'ANY', '', #144, .NOT_KNOWN. ) ;
#169 = FACE_OUTER_BOUND ( 'NONE', #125, .T. ) ;
#170 = ADVANCED_BREP_SHAPE_REPRESENTATION ( 'PE18-100', ( #18, #188 ), #20 ) ;
#171 = DIRECTION ( 'NONE',  ( -1.000000000000000000, 0.0000000000000000000, 0.0000000000000000000 ) ) ;
#172 = DIRECTION ( 'NONE',  ( -0.0000000000000000000, -0.0000000000000000000, -1.000000000000000000 ) ) ;
#173 = LINE ( 'NONE', #244, #238 ) ;
#174 = VECTOR ( 'NONE', #228, 1000.000000000000000 ) ;
#175 = DIRECTION ( 'NONE',  ( 0.0000000000000000000, 0.0000000000000000000, 1.000000000000000000 ) ) ;
#176 = SECURITY_CLASSIFICATION_LEVEL ( 'unclassified' ) ;
#177 = EDGE_LOOP ( 'NONE', ( #237, #223, #2, #156 ) ) ;
#178 = ADVANCED_FACE ( 'NONE', ( #130 ), #14, .F. ) ;
#179 = APPROVAL_DATE_TIME ( #7, #225 ) ;
#180 = ORIENTED_EDGE ( 'NONE', *, *, #214, .F. ) ;
#181 = APPROVAL_PERSON_ORGANIZATION ( #164, #233, #3 ) ;
#182 = DIRECTION ( 'NONE',  ( -1.000000000000000000, 0.0000000000000000000, 0.0000000000000000000 ) ) ;
#183 = MECHANICAL_CONTEXT ( 'NONE', #118, 'mechanical' ) ;
#184 = DIRECTION ( 'NONE',  ( 1.000000000000000000, 0.0000000000000000000, 0.0000000000000000000 ) ) ;
#185 = PERSON_AND_ORGANIZATION_ROLE ( 'design_owner' ) ;
#186 = CARTESIAN_POINT ( 'NONE',  ( 0.0000000000000000000, 0.0000000000000000000, 100.0000000000000000 ) ) ;
#187 = UNCERTAINTY_MEASURE_WITH_UNIT (LENGTH_MEASURE( 1.000000000000000082E-05 ), #193, 'distance_accuracy_value', 'NONE');
#188 = AXIS2_PLACEMENT_3D ( 'NONE', #98, #41, #155 ) ;
#189 = AXIS2_PLACEMENT_3D ( 'NONE', #212, #54, #209 ) ;
#190 = FACE_BOUND ( 'NONE', #22, .T. ) ;
#191 = DIRECTION ( 'NONE',  ( 1.000000000000000000, 0.0000000000000000000, 0.0000000000000000000 ) ) ;
#192 = DIRECTION ( 'NONE',  ( 1.000000000000000000, 0.0000000000000000000, 0.0000000000000000000 ) ) ;
#193 =( LENGTH_UNIT ( ) NAMED_UNIT ( * ) SI_UNIT ( .MILLI., .METRE. ) );
#194 = VECTOR ( 'NONE', #143, 1000.000000000000000 ) ;
#195 = CALENDAR_DATE ( 2021, 25, 1 ) ;
#196 = FACE_OUTER_BOUND ( 'NONE', #26, .T. ) ;
#197 = ADVANCED_FACE ( 'NONE', ( #152 ), #115, .T. ) ;
#198 = DIRECTION ( 'NONE',  ( 0.0000000000000000000, 0.0000000000000000000, 1.000000000000000000 ) ) ;
#199 = DATE_TIME_ROLE ( 'classification_date' ) ;
#200 = ORIENTED_EDGE ( 'NONE', *, *, #247, .F. ) ;
#201 = LOCAL_TIME ( 16, 2, 8.000000000000000000, #81 ) ;
#202 = CYLINDRICAL_SURFACE ( 'NONE', #114, 6.849999999999998757 ) ;
#203 = COORDINATED_UNIVERSAL_TIME_OFFSET ( 9, 0, .AHEAD. ) ;
#204 = DIRECTION ( 'NONE',  ( 0.0000000000000000000, 0.0000000000000000000, 1.000000000000000000 ) ) ;
#205 = APPROVAL_PERSON_ORGANIZATION ( #25, #32, #103 ) ;
#206 = CC_DESIGN_PERSON_AND_ORGANIZATION_ASSIGNMENT ( #105, #185, ( #144 ) ) ;
#207 = ORIENTED_EDGE ( 'NONE', *, *, #6, .F. ) ;
#208 = DIRECTION ( 'NONE',  ( 0.0000000000000000000, 0.0000000000000000000, 1.000000000000000000 ) ) ;
#209 = DIRECTION ( 'NONE',  ( 1.000000000000000000, 0.0000000000000000000, 0.0000000000000000000 ) ) ;
#210 = CC_DESIGN_PERSON_AND_ORGANIZATION_ASSIGNMENT ( #87, #1, ( #57 ) ) ;
#211 = CARTESIAN_POINT ( 'NONE',  ( 0.0000000000000000000, 0.0000000000000000000, 0.0000000000000000000 ) ) ;
#212 = CARTESIAN_POINT ( 'NONE',  ( 0.0000000000000000000, 0.0000000000000000000, 100.0000000000000000 ) ) ;
#213 = LOCAL_TIME ( 16, 2, 8.000000000000000000, #203 ) ;
#214 = EDGE_CURVE ( 'NONE', #42, #145, #173, .T. ) ;
#215 = DIRECTION ( 'NONE',  ( -0.0000000000000000000, -0.0000000000000000000, -1.000000000000000000 ) ) ;
#216 = LOCAL_TIME ( 16, 2, 8.000000000000000000, #61 ) ;
#217 = CALENDAR_DATE ( 2021, 25, 1 ) ;
#218 = VERTEX_POINT ( 'NONE', #74 ) ;
#219 = CARTESIAN_POINT ( 'NONE',  ( 6.849999999999998757, 8.388830574159367904E-16, 100.0000000000000000 ) ) ;
#220 = EDGE_LOOP ( 'NONE', ( #23, #235 ) ) ;
#221 = CIRCLE ( 'NONE', #13, 9.000000000000000000 ) ;
#222 = DATE_AND_TIME ( #161, #246 ) ;
#223 = ORIENTED_EDGE ( 'NONE', *, *, #167, .F. ) ;
#224 = CARTESIAN_POINT ( 'NONE',  ( -6.849999999999998757, 0.0000000000000000000, 100.0000000000000000 ) ) ;
#225 = APPROVAL ( #64, 'UNSPECIFIED' ) ;
#226 = CARTESIAN_POINT ( 'NONE',  ( -9.000000000000000000, 0.0000000000000000000, 0.0000000000000000000 ) ) ;
#227 = AXIS2_PLACEMENT_3D ( 'NONE', #104, #204, #184 ) ;
#228 = DIRECTION ( 'NONE',  ( -0.0000000000000000000, -0.0000000000000000000, -1.000000000000000000 ) ) ;
#229 = ADVANCED_FACE ( 'NONE', ( #153, #149 ), #56, .T. ) ;
#230 = CARTESIAN_POINT ( 'NONE',  ( 0.0000000000000000000, 0.0000000000000000000, 0.0000000000000000000 ) ) ;
#231 = CARTESIAN_POINT ( 'NONE',  ( 0.0000000000000000000, 0.0000000000000000000, 100.0000000000000000 ) ) ;
#232 = DIRECTION ( 'NONE',  ( 0.0000000000000000000, 0.0000000000000000000, 1.000000000000000000 ) ) ;
#233 = APPROVAL ( #126, 'UNSPECIFIED' ) ;
#234 = CARTESIAN_POINT ( 'NONE',  ( 6.849999999999998757, 8.388830574159367904E-16, 0.0000000000000000000 ) ) ;
#235 = ORIENTED_EDGE ( 'NONE', *, *, #108, .F. ) ;
#236 = APPLICATION_PROTOCOL_DEFINITION ( 'international standard', 'config_control_design', 1994, #118 ) ;
#237 = ORIENTED_EDGE ( 'NONE', *, *, #113, .F. ) ;
#238 = VECTOR ( 'NONE', #215, 1000.000000000000000 ) ;
#239 = CC_DESIGN_SECURITY_CLASSIFICATION ( #57, ( #168 ) ) ;
#240 = ORIENTED_EDGE ( 'NONE', *, *, #113, .T. ) ;
#241 = EDGE_CURVE ( 'NONE', #145, #109, #248, .T. ) ;
#242 = CARTESIAN_POINT ( 'NONE',  ( 0.0000000000000000000, 0.0000000000000000000, 0.0000000000000000000 ) ) ;
#243 = APPROVAL_DATE_TIME ( #222, #32 ) ;
#244 = CARTESIAN_POINT ( 'NONE',  ( -9.000000000000000000, 0.0000000000000000000, 100.0000000000000000 ) ) ;
#245 = CLOSED_SHELL ( 'NONE', ( #36, #150, #229, #123, #197, #178 ) ) ;
#246 = LOCAL_TIME ( 16, 2, 8.000000000000000000, #9 ) ;
#247 = EDGE_CURVE ( 'NONE', #106, #45, #16, .T. ) ;
#248 = CIRCLE ( 'NONE', #165, 9.000000000000000000 ) ;
#249 = CC_DESIGN_APPROVAL ( #32, ( #57 ) ) ;
ENDSEC;
END-ISO-10303-21;
