ISO-10303-21;
HEADER;
/****************************************************************
 * Generated by software with PDElib inside                    *
 * PDElib Version v51a, created Fri 09/10/2010                  *
 * ITI Transcendata (http://www.transcendata.com/)              *
 ****************************************************************/
FILE_DESCRIPTION((''),'2;1');
FILE_NAME('3d_LPXAU113.stp','2012-10-03T09:49:31',(''),(''),'Mechanical Desktop 2011','Mechanical Desktop 2011',', , ');
FILE_SCHEMA(('CONFIG_CONTROL_DESIGN'));
ENDSEC;
DATA;
#10=(NAMED_UNIT(*)PLANE_ANGLE_UNIT()SI_UNIT($,.RADIAN.));
#11=DIMENSIONAL_EXPONENTS(0.0,0.0,0.0,0.0,0.0,0.0,0.0);
#12=PLANE_ANGLE_MEASURE_WITH_UNIT(PLANE_ANGLE_MEASURE(0.0174532925),#10);
#16=(CONVERSION_BASED_UNIT('DEGREE',#12)NAMED_UNIT(#11)PLANE_ANGLE_UNIT());
#20=(NAMED_UNIT(*)SI_UNIT($,.STERADIAN.)SOLID_ANGLE_UNIT());
#24=(LENGTH_UNIT()NAMED_UNIT(*)SI_UNIT(.MILLI.,.METRE.));
#26=UNCERTAINTY_MEASURE_WITH_UNIT(LENGTH_MEASURE(0.000001),#24,'DISTANCE_ACCURACY_VALUE','');
#28=(GEOMETRIC_REPRESENTATION_CONTEXT(3)GLOBAL_UNCERTAINTY_ASSIGNED_CONTEXT((#26))GLOBAL_UNIT_ASSIGNED_CONTEXT((#16,#20,#24))REPRESENTATION_CONTEXT('','3D'));
#29=APPLICATION_CONTEXT('CONFIGURATION CONTROLLED 3D DESIGNS OF MECHANICAL PARTS AND ASSEMBLIES');
#30=APPLICATION_PROTOCOL_DEFINITION('INTERNATIONAL STANDARD','config_control_design',1995,#29);
#31=MECHANICAL_CONTEXT('3D Mechanical Parts',#29,'mechanical');
#32=PRODUCT('Product','Product',' ',(#31));
#33=PRODUCT_RELATED_PRODUCT_CATEGORY('detail',$,(#32));
#34=PRODUCT_CATEGORY('part',$);
#35=PRODUCT_CATEGORY_RELATIONSHIP('None','None',#34,#33);
#36=PERSON('1','Design','Joe',$,$,$);
#37=ORGANIZATION($,'None','None');
#38=PERSON_AND_ORGANIZATION(#36,#37);
#39=PERSON_AND_ORGANIZATION_ROLE('design_owner');
#40=CC_DESIGN_PERSON_AND_ORGANIZATION_ASSIGNMENT(#38,#39,(#32));
#41=PRODUCT_DEFINITION_FORMATION_WITH_SPECIFIED_SOURCE('None','None',#32,.BOUGHT.);
#42=PERSON('2','Creator','Joe',$,$,$);
#43=ORGANIZATION($,'None','None');
#44=PERSON_AND_ORGANIZATION(#42,#43);
#45=PERSON_AND_ORGANIZATION_ROLE('creator');
#46=CC_DESIGN_PERSON_AND_ORGANIZATION_ASSIGNMENT(#44,#45,(#41));
#47=PERSON('3','Supplier','Joe',$,$,$);
#48=ORGANIZATION($,'None','None');
#49=PERSON_AND_ORGANIZATION(#47,#48);
#50=PERSON_AND_ORGANIZATION_ROLE('design_supplier');
#51=CC_DESIGN_PERSON_AND_ORGANIZATION_ASSIGNMENT(#49,#50,(#41));
#52=APPROVAL_STATUS('approved');
#53=APPROVAL(#52,'None');
#54=PERSON('4','Approver','Joe',$,$,$);
#55=ORGANIZATION($,'None','None');
#56=PERSON_AND_ORGANIZATION(#54,#55);
#57=APPROVAL_ROLE('approver');
#58=APPROVAL_PERSON_ORGANIZATION(#56,#53,#57);
#59=COORDINATED_UNIVERSAL_TIME_OFFSET(8,$,.EXACT.);
#60=CALENDAR_DATE(1996,29,5);
#61=LOCAL_TIME(12,0,0.0,#59);
#62=DATE_AND_TIME(#60,#61);
#63=APPROVAL_DATE_TIME(#62,#53);
#64=CC_DESIGN_APPROVAL(#53,(#41));
#65=SECURITY_CLASSIFICATION_LEVEL('unclassified');
#66=SECURITY_CLASSIFICATION('security','None',#65);
#67=CC_DESIGN_SECURITY_CLASSIFICATION(#66,(#41));
#68=APPROVAL_STATUS('approved');
#69=APPROVAL(#68,'None');
#70=PERSON('5','Approver','Joe',$,$,$);
#71=ORGANIZATION($,'None','None');
#72=PERSON_AND_ORGANIZATION(#70,#71);
#73=APPROVAL_ROLE('approver');
#74=APPROVAL_PERSON_ORGANIZATION(#72,#69,#73);
#75=COORDINATED_UNIVERSAL_TIME_OFFSET(8,$,.EXACT.);
#76=CALENDAR_DATE(1996,29,5);
#77=LOCAL_TIME(12,0,0.0,#75);
#78=DATE_AND_TIME(#76,#77);
#79=APPROVAL_DATE_TIME(#78,#69);
#80=CC_DESIGN_APPROVAL(#69,(#66));
#81=PERSON('6','Classifier','Joe',$,$,$);
#82=ORGANIZATION($,'None','None');
#83=PERSON_AND_ORGANIZATION(#81,#82);
#84=PERSON_AND_ORGANIZATION_ROLE('classification_officer');
#85=CC_DESIGN_PERSON_AND_ORGANIZATION_ASSIGNMENT(#83,#84,(#66));
#86=COORDINATED_UNIVERSAL_TIME_OFFSET(8,$,.EXACT.);
#87=CALENDAR_DATE(1996,29,5);
#88=LOCAL_TIME(12,0,0.0,#86);
#89=DATE_AND_TIME(#87,#88);
#90=DATE_TIME_ROLE('classification_date');
#91=CC_DESIGN_DATE_AND_TIME_ASSIGNMENT(#89,#90,(#66));
#92=DESIGN_CONTEXT('Design Context',#29,'design');
#93=PRODUCT_DEFINITION('None','None',#41,#92);
#94=PERSON('7','Creator','Joe',$,$,$);
#95=ORGANIZATION($,'None','None');
#96=PERSON_AND_ORGANIZATION(#94,#95);
#97=PERSON_AND_ORGANIZATION_ROLE('creator');
#98=CC_DESIGN_PERSON_AND_ORGANIZATION_ASSIGNMENT(#96,#97,(#93));
#99=COORDINATED_UNIVERSAL_TIME_OFFSET(8,$,.EXACT.);
#100=CALENDAR_DATE(1996,29,5);
#101=LOCAL_TIME(12,0,0.0,#99);
#102=DATE_AND_TIME(#100,#101);
#103=DATE_TIME_ROLE('creation_date');
#104=CC_DESIGN_DATE_AND_TIME_ASSIGNMENT(#102,#103,(#93));
#105=APPROVAL_STATUS('approved');
#106=APPROVAL(#105,'None');
#107=PERSON('8','Approver','Joe',$,$,$);
#108=ORGANIZATION($,'None','None');
#109=PERSON_AND_ORGANIZATION(#107,#108);
#110=APPROVAL_ROLE('approver');
#111=APPROVAL_PERSON_ORGANIZATION(#109,#106,#110);
#112=COORDINATED_UNIVERSAL_TIME_OFFSET(8,$,.EXACT.);
#113=CALENDAR_DATE(1996,29,5);
#114=LOCAL_TIME(12,0,0.0,#112);
#115=DATE_AND_TIME(#113,#114);
#116=APPROVAL_DATE_TIME(#115,#106);
#117=CC_DESIGN_APPROVAL(#106,(#93));
#118=CARTESIAN_POINT('NONE',(0.0,0.0,0.0));
#119=DIRECTION('NONE',(0.0,0.0,1.0));
#120=DIRECTION('NONE',(1.0,0.0,0.0));
#121=AXIS2_PLACEMENT_3D('NONE',#118,#119,#120);
#122=SHAPE_REPRESENTATION('SR1',(#121),#28);
#123=PRODUCT_DEFINITION_SHAPE('PDS1','Test Part',#93);
#124=SHAPE_DEFINITION_REPRESENTATION(#123,#122);
#125=CARTESIAN_POINT('',(0.0,0.0,-0.5));
#126=DIRECTION('',(0.0,0.0,1.0));
#127=DIRECTION('',(0.0,-1.0,0.0));
#128=AXIS2_PLACEMENT_3D('',#125,#126,#127);
#129=CYLINDRICAL_SURFACE('',#128,45.0);
#130=CARTESIAN_POINT('',(0.0,-45.0,0.0));
#131=VERTEX_POINT('',#130);
#132=CARTESIAN_POINT('',(0.0,-45.0,-0.5));
#133=VERTEX_POINT('',#132);
#134=CARTESIAN_POINT('',(0.0,-45.0,0.0));
#135=DIRECTION('',(0.0,0.0,-1.0));
#136=VECTOR('',#135,0.5);
#137=LINE('',#134,#136);
#138=EDGE_CURVE('',#131,#133,#137,.T.);
#139=ORIENTED_EDGE('',*,*,#138,.F.);
#140=CARTESIAN_POINT('',(-5.510729E-015,45.0,0.0));
#141=VERTEX_POINT('',#140);
#142=CARTESIAN_POINT('',(0.0,0.0,0.0));
#143=DIRECTION('',(0.0,0.0,-1.0));
#144=DIRECTION('',(0.0,-1.0,0.0));
#145=AXIS2_PLACEMENT_3D('',#142,#143,#144);
#146=CIRCLE('',#145,45.0);
#147=EDGE_CURVE('',#131,#141,#146,.T.);
#148=ORIENTED_EDGE('',*,*,#147,.T.);
#149=CARTESIAN_POINT('',(-5.510729E-015,45.0,-0.5));
#150=VERTEX_POINT('',#149);
#151=CARTESIAN_POINT('',(-5.510729E-015,45.0,0.0));
#152=DIRECTION('',(0.0,0.0,-1.0));
#153=VECTOR('',#152,0.5);
#154=LINE('',#151,#153);
#155=EDGE_CURVE('',#141,#150,#154,.T.);
#156=ORIENTED_EDGE('',*,*,#155,.T.);
#157=CARTESIAN_POINT('',(0.0,0.0,-0.5));
#158=DIRECTION('',(0.0,0.0,1.0));
#159=DIRECTION('',(0.0,-1.0,0.0));
#160=AXIS2_PLACEMENT_3D('',#157,#158,#159);
#161=CIRCLE('',#160,45.0);
#162=EDGE_CURVE('',#150,#133,#161,.T.);
#163=ORIENTED_EDGE('',*,*,#162,.T.);
#164=EDGE_LOOP('',(#139,#148,#156,#163));
#165=FACE_OUTER_BOUND('',#164,.T.);
#166=ADVANCED_FACE('',(#165),#129,.T.);
#167=CARTESIAN_POINT('',(-7.105427E-015,-0.000418563483052,-0.5));
#168=DIRECTION('',(0.0,0.0,1.0));
#169=DIRECTION('',(0.0,-1.0,0.0));
#170=AXIS2_PLACEMENT_3D('',#167,#168,#169);
#171=CYLINDRICAL_SURFACE('',#170,11.250568185754393);
#172=CARTESIAN_POINT('',(-1.499994574652803,11.149707031250003,0.0));
#173=VERTEX_POINT('',#172);
#174=CARTESIAN_POINT('',(1.499994574652789,11.149707031250003,0.0));
#175=VERTEX_POINT('',#174);
#176=CARTESIAN_POINT('',(-7.105427E-015,-0.000418563483052,0.0));
#177=DIRECTION('',(0.0,0.0,1.0));
#178=DIRECTION('',(0.0,-1.0,0.0));
#179=AXIS2_PLACEMENT_3D('',#176,#177,#178);
#180=CIRCLE('',#179,11.250568185754393);
#181=EDGE_CURVE('',#173,#175,#180,.T.);
#182=ORIENTED_EDGE('',*,*,#181,.T.);
#183=CARTESIAN_POINT('',(1.499994574652789,11.149707031250003,-0.5));
#184=VERTEX_POINT('',#183);
#185=CARTESIAN_POINT('',(1.499994574652789,11.149707031250003,-0.5));
#186=DIRECTION('',(0.0,0.0,1.0));
#187=VECTOR('',#186,0.5);
#188=LINE('',#185,#187);
#189=EDGE_CURVE('',#184,#175,#188,.T.);
#190=ORIENTED_EDGE('',*,*,#189,.F.);
#191=CARTESIAN_POINT('',(-1.499994574652803,11.149707031250003,-0.5));
#192=VERTEX_POINT('',#191);
#193=CARTESIAN_POINT('',(-7.105427E-015,-0.000418563483052,-0.5));
#194=DIRECTION('',(0.0,0.0,-1.0));
#195=DIRECTION('',(0.0,-1.0,0.0));
#196=AXIS2_PLACEMENT_3D('',#193,#194,#195);
#197=CIRCLE('',#196,11.250568185754393);
#198=EDGE_CURVE('',#184,#192,#197,.T.);
#199=ORIENTED_EDGE('',*,*,#198,.T.);
#200=CARTESIAN_POINT('',(-1.499994574652803,11.149707031250003,-0.5));
#201=DIRECTION('',(0.0,0.0,1.0));
#202=VECTOR('',#201,0.5);
#203=LINE('',#200,#202);
#204=EDGE_CURVE('',#192,#173,#203,.T.);
#205=ORIENTED_EDGE('',*,*,#204,.T.);
#206=EDGE_LOOP('',(#182,#190,#199,#205));
#207=FACE_OUTER_BOUND('',#206,.T.);
#208=ADVANCED_FACE('',(#207),#171,.F.);
#209=CARTESIAN_POINT('',(1.499994574652789,11.149707031250003,-0.5));
#210=DIRECTION('',(-1.0,0.0,0.0));
#211=DIRECTION('',(0.0,0.0,1.0));
#212=AXIS2_PLACEMENT_3D('',#209,#210,#211);
#213=PLANE('',#212);
#214=CARTESIAN_POINT('',(1.499994574652789,12.142239040798643,0.0));
#215=VERTEX_POINT('',#214);
#216=CARTESIAN_POINT('',(1.499994574652789,11.149707031250003,0.0));
#217=DIRECTION('',(0.0,1.0,0.0));
#218=VECTOR('',#217,0.99253200954864);
#219=LINE('',#216,#218);
#220=EDGE_CURVE('',#175,#215,#219,.T.);
#221=ORIENTED_EDGE('',*,*,#220,.T.);
#222=CARTESIAN_POINT('',(1.499994574652789,12.142239040798643,-0.5));
#223=VERTEX_POINT('',#222);
#224=CARTESIAN_POINT('',(1.499994574652789,12.142239040798643,-0.5));
#225=DIRECTION('',(0.0,0.0,1.0));
#226=VECTOR('',#225,0.5);
#227=LINE('',#224,#226);
#228=EDGE_CURVE('',#223,#215,#227,.T.);
#229=ORIENTED_EDGE('',*,*,#228,.F.);
#230=CARTESIAN_POINT('',(1.499994574652789,12.142239040798643,-0.5));
#231=DIRECTION('',(0.0,-1.0,0.0));
#232=VECTOR('',#231,0.99253200954864);
#233=LINE('',#230,#232);
#234=EDGE_CURVE('',#223,#184,#233,.T.);
#235=ORIENTED_EDGE('',*,*,#234,.T.);
#236=ORIENTED_EDGE('',*,*,#189,.T.);
#237=EDGE_LOOP('',(#221,#229,#235,#236));
#238=FACE_OUTER_BOUND('',#237,.T.);
#239=ADVANCED_FACE('',(#238),#213,.T.);
#240=CARTESIAN_POINT('',(4.263256E-014,12.142239040798671,-0.5));
#241=DIRECTION('',(0.0,0.0,1.0));
#242=DIRECTION('',(0.0,1.0,0.0));
#243=AXIS2_PLACEMENT_3D('',#240,#241,#242);
#244=CYLINDRICAL_SURFACE('',#243,1.499994574652746);
#245=CARTESIAN_POINT('',(-1.499994574652703,12.142239040798685,0.0));
#246=VERTEX_POINT('',#245);
#247=CARTESIAN_POINT('',(4.263256E-014,12.142239040798671,0.0));
#248=DIRECTION('',(0.0,0.0,1.0));
#249=DIRECTION('',(0.0,1.0,0.0));
#250=AXIS2_PLACEMENT_3D('',#247,#248,#249);
#251=CIRCLE('',#250,1.499994574652746);
#252=EDGE_CURVE('',#215,#246,#251,.T.);
#253=ORIENTED_EDGE('',*,*,#252,.T.);
#254=CARTESIAN_POINT('',(-1.499994574652703,12.142239040798685,-0.5));
#255=VERTEX_POINT('',#254);
#256=CARTESIAN_POINT('',(-1.499994574652703,12.142239040798685,-0.5));
#257=DIRECTION('',(0.0,0.0,1.0));
#258=VECTOR('',#257,0.5);
#259=LINE('',#256,#258);
#260=EDGE_CURVE('',#255,#246,#259,.T.);
#261=ORIENTED_EDGE('',*,*,#260,.F.);
#262=CARTESIAN_POINT('',(4.263256E-014,12.142239040798671,-0.5));
#263=DIRECTION('',(0.0,0.0,-1.0));
#264=DIRECTION('',(0.0,1.0,0.0));
#265=AXIS2_PLACEMENT_3D('',#262,#263,#264);
#266=CIRCLE('',#265,1.499994574652746);
#267=EDGE_CURVE('',#255,#223,#266,.T.);
#268=ORIENTED_EDGE('',*,*,#267,.T.);
#269=ORIENTED_EDGE('',*,*,#228,.T.);
#270=EDGE_LOOP('',(#253,#261,#268,#269));
#271=FACE_OUTER_BOUND('',#270,.T.);
#272=ADVANCED_FACE('',(#271),#244,.F.);
#273=CARTESIAN_POINT('',(-1.499994574652703,12.142239040798685,-0.5));
#274=DIRECTION('',(1.0,-1.002245E-013,0.0));
#275=DIRECTION('',(0.0,0.0,-1.0));
#276=AXIS2_PLACEMENT_3D('',#273,#274,#275);
#277=PLANE('',#276);
#278=CARTESIAN_POINT('',(-1.499994574652703,12.142239040798685,0.0));
#279=DIRECTION('',(-1.002245E-013,-1.0,0.0));
#280=VECTOR('',#279,0.992532009548682);
#281=LINE('',#278,#280);
#282=EDGE_CURVE('',#246,#173,#281,.T.);
#283=ORIENTED_EDGE('',*,*,#282,.T.);
#284=ORIENTED_EDGE('',*,*,#204,.F.);
#285=CARTESIAN_POINT('',(-1.499994574652803,11.149707031250003,-0.5));
#286=DIRECTION('',(1.002245E-013,1.0,0.0));
#287=VECTOR('',#286,0.992532009548682);
#288=LINE('',#285,#287);
#289=EDGE_CURVE('',#192,#255,#288,.T.);
#290=ORIENTED_EDGE('',*,*,#289,.T.);
#291=ORIENTED_EDGE('',*,*,#260,.T.);
#292=EDGE_LOOP('',(#283,#284,#290,#291));
#293=FACE_OUTER_BOUND('',#292,.T.);
#294=ADVANCED_FACE('',(#293),#277,.T.);
#295=CARTESIAN_POINT('',(0.0,0.0,-0.5));
#296=DIRECTION('',(0.0,0.0,1.0));
#297=DIRECTION('',(0.0,-1.0,0.0));
#298=AXIS2_PLACEMENT_3D('',#295,#296,#297);
#299=CYLINDRICAL_SURFACE('',#298,45.0);
#300=ORIENTED_EDGE('',*,*,#138,.T.);
#301=CARTESIAN_POINT('',(45.0,0.0,-0.5));
#302=VERTEX_POINT('',#301);
#303=CARTESIAN_POINT('',(0.0,0.0,-0.5));
#304=DIRECTION('',(0.0,0.0,1.0));
#305=DIRECTION('',(0.0,-1.0,0.0));
#306=AXIS2_PLACEMENT_3D('',#303,#304,#305);
#307=CIRCLE('',#306,45.0);
#308=EDGE_CURVE('',#133,#302,#307,.T.);
#309=ORIENTED_EDGE('',*,*,#308,.T.);
#310=CARTESIAN_POINT('',(0.0,0.0,-0.5));
#311=DIRECTION('',(0.0,0.0,1.0));
#312=DIRECTION('',(0.0,-1.0,0.0));
#313=AXIS2_PLACEMENT_3D('',#310,#311,#312);
#314=CIRCLE('',#313,45.0);
#315=EDGE_CURVE('',#302,#150,#314,.T.);
#316=ORIENTED_EDGE('',*,*,#315,.T.);
#317=ORIENTED_EDGE('',*,*,#155,.F.);
#318=CARTESIAN_POINT('',(45.0,0.0,0.0));
#319=VERTEX_POINT('',#318);
#320=CARTESIAN_POINT('',(0.0,0.0,0.0));
#321=DIRECTION('',(0.0,0.0,-1.0));
#322=DIRECTION('',(0.0,-1.0,0.0));
#323=AXIS2_PLACEMENT_3D('',#320,#321,#322);
#324=CIRCLE('',#323,45.0);
#325=EDGE_CURVE('',#141,#319,#324,.T.);
#326=ORIENTED_EDGE('',*,*,#325,.T.);
#327=CARTESIAN_POINT('',(0.0,0.0,0.0));
#328=DIRECTION('',(0.0,0.0,-1.0));
#329=DIRECTION('',(0.0,-1.0,0.0));
#330=AXIS2_PLACEMENT_3D('',#327,#328,#329);
#331=CIRCLE('',#330,45.0);
#332=EDGE_CURVE('',#319,#131,#331,.T.);
#333=ORIENTED_EDGE('',*,*,#332,.T.);
#334=EDGE_LOOP('',(#300,#309,#316,#317,#326,#333));
#335=FACE_OUTER_BOUND('',#334,.T.);
#336=ADVANCED_FACE('',(#335),#299,.T.);
#337=CARTESIAN_POINT('',(0.0,0.0,0.0));
#338=DIRECTION('',(0.0,0.0,1.0));
#339=DIRECTION('',(1.0,0.0,0.0));
#340=AXIS2_PLACEMENT_3D('',#337,#338,#339);
#341=PLANE('',#340);
#342=ORIENTED_EDGE('',*,*,#332,.F.);
#343=ORIENTED_EDGE('',*,*,#325,.F.);
#344=ORIENTED_EDGE('',*,*,#147,.F.);
#345=EDGE_LOOP('',(#342,#343,#344));
#346=FACE_OUTER_BOUND('',#345,.T.);
#347=ORIENTED_EDGE('',*,*,#181,.F.);
#348=ORIENTED_EDGE('',*,*,#282,.F.);
#349=ORIENTED_EDGE('',*,*,#252,.F.);
#350=ORIENTED_EDGE('',*,*,#220,.F.);
#351=EDGE_LOOP('',(#347,#348,#349,#350));
#352=FACE_BOUND('',#351,.T.);
#353=ADVANCED_FACE('',(#346,#352),#341,.T.);
#354=CARTESIAN_POINT('',(0.0,0.0,-0.5));
#355=DIRECTION('',(0.0,0.0,1.0));
#356=DIRECTION('',(1.0,0.0,0.0));
#357=AXIS2_PLACEMENT_3D('',#354,#355,#356);
#358=PLANE('',#357);
#359=ORIENTED_EDGE('',*,*,#315,.F.);
#360=ORIENTED_EDGE('',*,*,#308,.F.);
#361=ORIENTED_EDGE('',*,*,#162,.F.);
#362=EDGE_LOOP('',(#359,#360,#361));
#363=FACE_OUTER_BOUND('',#362,.T.);
#364=ORIENTED_EDGE('',*,*,#289,.F.);
#365=ORIENTED_EDGE('',*,*,#198,.F.);
#366=ORIENTED_EDGE('',*,*,#234,.F.);
#367=ORIENTED_EDGE('',*,*,#267,.F.);
#368=EDGE_LOOP('',(#364,#365,#366,#367));
#369=FACE_BOUND('',#368,.T.);
#370=ADVANCED_FACE('',(#363,#369),#358,.F.);
#371=CLOSED_SHELL('',(#166,#208,#239,#272,#294,#336,#353,#370));
#372=MANIFOLD_SOLID_BREP('D028',#371);
#373=ADVANCED_BREP_SHAPE_REPRESENTATION('ABSR1',(#372),#28);
#374=SHAPE_REPRESENTATION_RELATIONSHIP('SRRPL1','',#373,#122);
ENDSEC;
END-ISO-10303-21;
