ISO-10303-21;
HEADER;
/****************************************************************
 * Generated by software with PDElib inside                    *
 * PDElib Version v51a, created Fri 09/10/2010                  *
 * ITI Transcendata (http://www.transcendata.com/)              *
 ****************************************************************/
FILE_DESCRIPTION((''),'2;1');
FILE_NAME('3d_LPXAU110.stp','2012-10-03T09:49:31',(''),(''),'Mechanical Desktop 2011','Mechanical Desktop 2011',', , ');
FILE_SCHEMA(('CONFIG_CONTROL_DESIGN'));
ENDSEC;
DATA;
#10=(NAMED_UNIT(*)PLANE_ANGLE_UNIT()SI_UNIT($,.RADIAN.));
#11=DIMENSIONAL_EXPONENTS(0.0,0.0,0.0,0.0,0.0,0.0,0.0);
#12=PLANE_ANGLE_MEASURE_WITH_UNIT(PLANE_ANGLE_MEASURE(0.0174532925),#10);
#16=(CONVERSION_BASED_UNIT('DEGREE',#12)NAMED_UNIT(#11)PLANE_ANGLE_UNIT());
#20=(NAMED_UNIT(*)SI_UNIT($,.STERADIAN.)SOLID_ANGLE_UNIT());
#24=(LENGTH_UNIT()NAMED_UNIT(*)SI_UNIT(.MILLI.,.METRE.));
#26=UNCERTAINTY_MEASURE_WITH_UNIT(LENGTH_MEASURE(0.000001),#24,'DISTANCE_ACCURACY_VALUE','');
#28=(GEOMETRIC_REPRESENTATION_CONTEXT(3)GLOBAL_UNCERTAINTY_ASSIGNED_CONTEXT((#26))GLOBAL_UNIT_ASSIGNED_CONTEXT((#16,#20,#24))REPRESENTATION_CONTEXT('','3D'));
#29=APPLICATION_CONTEXT('CONFIGURATION CONTROLLED 3D DESIGNS OF MECHANICAL PARTS AND ASSEMBLIES');
#30=APPLICATION_PROTOCOL_DEFINITION('INTERNATIONAL STANDARD','config_control_design',1995,#29);
#31=MECHANICAL_CONTEXT('3D Mechanical Parts',#29,'mechanical');
#32=PRODUCT('Product','Product',' ',(#31));
#33=PRODUCT_RELATED_PRODUCT_CATEGORY('detail',$,(#32));
#34=PRODUCT_CATEGORY('part',$);
#35=PRODUCT_CATEGORY_RELATIONSHIP('None','None',#34,#33);
#36=PERSON('1','Design','Joe',$,$,$);
#37=ORGANIZATION($,'None','None');
#38=PERSON_AND_ORGANIZATION(#36,#37);
#39=PERSON_AND_ORGANIZATION_ROLE('design_owner');
#40=CC_DESIGN_PERSON_AND_ORGANIZATION_ASSIGNMENT(#38,#39,(#32));
#41=PRODUCT_DEFINITION_FORMATION_WITH_SPECIFIED_SOURCE('None','None',#32,.BOUGHT.);
#42=PERSON('2','Creator','Joe',$,$,$);
#43=ORGANIZATION($,'None','None');
#44=PERSON_AND_ORGANIZATION(#42,#43);
#45=PERSON_AND_ORGANIZATION_ROLE('creator');
#46=CC_DESIGN_PERSON_AND_ORGANIZATION_ASSIGNMENT(#44,#45,(#41));
#47=PERSON('3','Supplier','Joe',$,$,$);
#48=ORGANIZATION($,'None','None');
#49=PERSON_AND_ORGANIZATION(#47,#48);
#50=PERSON_AND_ORGANIZATION_ROLE('design_supplier');
#51=CC_DESIGN_PERSON_AND_ORGANIZATION_ASSIGNMENT(#49,#50,(#41));
#52=APPROVAL_STATUS('approved');
#53=APPROVAL(#52,'None');
#54=PERSON('4','Approver','Joe',$,$,$);
#55=ORGANIZATION($,'None','None');
#56=PERSON_AND_ORGANIZATION(#54,#55);
#57=APPROVAL_ROLE('approver');
#58=APPROVAL_PERSON_ORGANIZATION(#56,#53,#57);
#59=COORDINATED_UNIVERSAL_TIME_OFFSET(8,$,.EXACT.);
#60=CALENDAR_DATE(1996,29,5);
#61=LOCAL_TIME(12,0,0.0,#59);
#62=DATE_AND_TIME(#60,#61);
#63=APPROVAL_DATE_TIME(#62,#53);
#64=CC_DESIGN_APPROVAL(#53,(#41));
#65=SECURITY_CLASSIFICATION_LEVEL('unclassified');
#66=SECURITY_CLASSIFICATION('security','None',#65);
#67=CC_DESIGN_SECURITY_CLASSIFICATION(#66,(#41));
#68=APPROVAL_STATUS('approved');
#69=APPROVAL(#68,'None');
#70=PERSON('5','Approver','Joe',$,$,$);
#71=ORGANIZATION($,'None','None');
#72=PERSON_AND_ORGANIZATION(#70,#71);
#73=APPROVAL_ROLE('approver');
#74=APPROVAL_PERSON_ORGANIZATION(#72,#69,#73);
#75=COORDINATED_UNIVERSAL_TIME_OFFSET(8,$,.EXACT.);
#76=CALENDAR_DATE(1996,29,5);
#77=LOCAL_TIME(12,0,0.0,#75);
#78=DATE_AND_TIME(#76,#77);
#79=APPROVAL_DATE_TIME(#78,#69);
#80=CC_DESIGN_APPROVAL(#69,(#66));
#81=PERSON('6','Classifier','Joe',$,$,$);
#82=ORGANIZATION($,'None','None');
#83=PERSON_AND_ORGANIZATION(#81,#82);
#84=PERSON_AND_ORGANIZATION_ROLE('classification_officer');
#85=CC_DESIGN_PERSON_AND_ORGANIZATION_ASSIGNMENT(#83,#84,(#66));
#86=COORDINATED_UNIVERSAL_TIME_OFFSET(8,$,.EXACT.);
#87=CALENDAR_DATE(1996,29,5);
#88=LOCAL_TIME(12,0,0.0,#86);
#89=DATE_AND_TIME(#87,#88);
#90=DATE_TIME_ROLE('classification_date');
#91=CC_DESIGN_DATE_AND_TIME_ASSIGNMENT(#89,#90,(#66));
#92=DESIGN_CONTEXT('Design Context',#29,'design');
#93=PRODUCT_DEFINITION('None','None',#41,#92);
#94=PERSON('7','Creator','Joe',$,$,$);
#95=ORGANIZATION($,'None','None');
#96=PERSON_AND_ORGANIZATION(#94,#95);
#97=PERSON_AND_ORGANIZATION_ROLE('creator');
#98=CC_DESIGN_PERSON_AND_ORGANIZATION_ASSIGNMENT(#96,#97,(#93));
#99=COORDINATED_UNIVERSAL_TIME_OFFSET(8,$,.EXACT.);
#100=CALENDAR_DATE(1996,29,5);
#101=LOCAL_TIME(12,0,0.0,#99);
#102=DATE_AND_TIME(#100,#101);
#103=DATE_TIME_ROLE('creation_date');
#104=CC_DESIGN_DATE_AND_TIME_ASSIGNMENT(#102,#103,(#93));
#105=APPROVAL_STATUS('approved');
#106=APPROVAL(#105,'None');
#107=PERSON('8','Approver','Joe',$,$,$);
#108=ORGANIZATION($,'None','None');
#109=PERSON_AND_ORGANIZATION(#107,#108);
#110=APPROVAL_ROLE('approver');
#111=APPROVAL_PERSON_ORGANIZATION(#109,#106,#110);
#112=COORDINATED_UNIVERSAL_TIME_OFFSET(8,$,.EXACT.);
#113=CALENDAR_DATE(1996,29,5);
#114=LOCAL_TIME(12,0,0.0,#112);
#115=DATE_AND_TIME(#113,#114);
#116=APPROVAL_DATE_TIME(#115,#106);
#117=CC_DESIGN_APPROVAL(#106,(#93));
#118=CARTESIAN_POINT('NONE',(0.0,0.0,0.0));
#119=DIRECTION('NONE',(0.0,0.0,1.0));
#120=DIRECTION('NONE',(1.0,0.0,0.0));
#121=AXIS2_PLACEMENT_3D('NONE',#118,#119,#120);
#122=SHAPE_REPRESENTATION('SR1',(#121),#28);
#123=PRODUCT_DEFINITION_SHAPE('PDS1','Test Part',#93);
#124=SHAPE_DEFINITION_REPRESENTATION(#123,#122);
#125=CARTESIAN_POINT('',(0.0,0.0,0.0));
#126=DIRECTION('',(0.0,0.0,-1.0));
#127=DIRECTION('',(0.0,-1.0,0.0));
#128=AXIS2_PLACEMENT_3D('',#125,#126,#127);
#129=CYLINDRICAL_SURFACE('',#128,29.999891493055557);
#130=CARTESIAN_POINT('',(0.0,-29.999891493055557,-0.5));
#131=VERTEX_POINT('',#130);
#132=CARTESIAN_POINT('',(0.0,-29.999891493055557,0.0));
#133=VERTEX_POINT('',#132);
#134=CARTESIAN_POINT('',(0.0,-29.999891493055557,-0.5));
#135=DIRECTION('',(0.0,0.0,1.0));
#136=VECTOR('',#135,0.5);
#137=LINE('',#134,#136);
#138=EDGE_CURVE('',#131,#133,#137,.T.);
#139=ORIENTED_EDGE('',*,*,#138,.F.);
#140=CARTESIAN_POINT('',(29.999891493055557,0.0,-0.5));
#141=VERTEX_POINT('',#140);
#142=CARTESIAN_POINT('',(0.0,0.0,-0.5));
#143=DIRECTION('',(0.0,0.0,1.0));
#144=DIRECTION('',(0.0,-1.0,0.0));
#145=AXIS2_PLACEMENT_3D('',#142,#143,#144);
#146=CIRCLE('',#145,29.999891493055557);
#147=EDGE_CURVE('',#131,#141,#146,.T.);
#148=ORIENTED_EDGE('',*,*,#147,.T.);
#149=CARTESIAN_POINT('',(3.673806E-015,29.999891493055557,-0.5));
#150=VERTEX_POINT('',#149);
#151=CARTESIAN_POINT('',(0.0,0.0,-0.5));
#152=DIRECTION('',(0.0,0.0,1.0));
#153=DIRECTION('',(0.0,-1.0,0.0));
#154=AXIS2_PLACEMENT_3D('',#151,#152,#153);
#155=CIRCLE('',#154,29.999891493055557);
#156=EDGE_CURVE('',#141,#150,#155,.T.);
#157=ORIENTED_EDGE('',*,*,#156,.T.);
#158=CARTESIAN_POINT('',(3.673806E-015,29.999891493055557,0.0));
#159=VERTEX_POINT('',#158);
#160=CARTESIAN_POINT('',(3.673806E-015,29.999891493055557,-0.5));
#161=DIRECTION('',(0.0,0.0,1.0));
#162=VECTOR('',#161,0.5);
#163=LINE('',#160,#162);
#164=EDGE_CURVE('',#150,#159,#163,.T.);
#165=ORIENTED_EDGE('',*,*,#164,.T.);
#166=CARTESIAN_POINT('',(29.999891493055557,0.0,0.0));
#167=VERTEX_POINT('',#166);
#168=CARTESIAN_POINT('',(0.0,0.0,0.0));
#169=DIRECTION('',(0.0,0.0,1.0));
#170=DIRECTION('',(0.0,-1.0,0.0));
#171=AXIS2_PLACEMENT_3D('',#168,#169,#170);
#172=CIRCLE('',#171,29.999891493055557);
#173=EDGE_CURVE('',#167,#159,#172,.T.);
#174=ORIENTED_EDGE('',*,*,#173,.F.);
#175=CARTESIAN_POINT('',(0.0,0.0,0.0));
#176=DIRECTION('',(0.0,0.0,1.0));
#177=DIRECTION('',(0.0,-1.0,0.0));
#178=AXIS2_PLACEMENT_3D('',#175,#176,#177);
#179=CIRCLE('',#178,29.999891493055557);
#180=EDGE_CURVE('',#133,#167,#179,.T.);
#181=ORIENTED_EDGE('',*,*,#180,.F.);
#182=EDGE_LOOP('',(#139,#148,#157,#165,#174,#181));
#183=FACE_OUTER_BOUND('',#182,.T.);
#184=ADVANCED_FACE('',(#183),#129,.T.);
#185=CARTESIAN_POINT('',(-7.105427E-015,12.142239040798628,0.0));
#186=DIRECTION('',(0.0,0.0,-1.0));
#187=DIRECTION('',(0.0,1.0,0.0));
#188=AXIS2_PLACEMENT_3D('',#185,#186,#187);
#189=CYLINDRICAL_SURFACE('',#188,1.499994574652796);
#190=CARTESIAN_POINT('',(-1.499994574652803,12.142239040798636,-0.5));
#191=VERTEX_POINT('',#190);
#192=CARTESIAN_POINT('',(1.499994574652789,12.142239040798621,-0.5));
#193=VERTEX_POINT('',#192);
#194=CARTESIAN_POINT('',(-7.105427E-015,12.142239040798628,-0.5));
#195=DIRECTION('',(0.0,0.0,-1.0));
#196=DIRECTION('',(0.0,1.0,0.0));
#197=AXIS2_PLACEMENT_3D('',#194,#195,#196);
#198=CIRCLE('',#197,1.499994574652796);
#199=EDGE_CURVE('',#191,#193,#198,.T.);
#200=ORIENTED_EDGE('',*,*,#199,.T.);
#201=CARTESIAN_POINT('',(1.499994574652789,12.142239040798621,0.0));
#202=VERTEX_POINT('',#201);
#203=CARTESIAN_POINT('',(1.499994574652789,12.142239040798621,0.0));
#204=DIRECTION('',(0.0,0.0,-1.0));
#205=VECTOR('',#204,0.5);
#206=LINE('',#203,#205);
#207=EDGE_CURVE('',#202,#193,#206,.T.);
#208=ORIENTED_EDGE('',*,*,#207,.F.);
#209=CARTESIAN_POINT('',(-1.499994574652803,12.142239040798636,0.0));
#210=VERTEX_POINT('',#209);
#211=CARTESIAN_POINT('',(-7.105427E-015,12.142239040798628,0.0));
#212=DIRECTION('',(0.0,0.0,-1.0));
#213=DIRECTION('',(0.0,1.0,0.0));
#214=AXIS2_PLACEMENT_3D('',#211,#212,#213);
#215=CIRCLE('',#214,1.499994574652796);
#216=EDGE_CURVE('',#210,#202,#215,.T.);
#217=ORIENTED_EDGE('',*,*,#216,.F.);
#218=CARTESIAN_POINT('',(-1.499994574652803,12.142239040798636,0.0));
#219=DIRECTION('',(0.0,0.0,-1.0));
#220=VECTOR('',#219,0.5);
#221=LINE('',#218,#220);
#222=EDGE_CURVE('',#210,#191,#221,.T.);
#223=ORIENTED_EDGE('',*,*,#222,.T.);
#224=EDGE_LOOP('',(#200,#208,#217,#223));
#225=FACE_OUTER_BOUND('',#224,.T.);
#226=ADVANCED_FACE('',(#225),#189,.F.);
#227=CARTESIAN_POINT('',(1.499994574652789,12.142239040798621,0.0));
#228=DIRECTION('',(-1.0,0.0,0.0));
#229=DIRECTION('',(0.0,0.0,1.0));
#230=AXIS2_PLACEMENT_3D('',#227,#228,#229);
#231=PLANE('',#230);
#232=CARTESIAN_POINT('',(1.499994574652789,11.14970703125001,-0.5));
#233=VERTEX_POINT('',#232);
#234=CARTESIAN_POINT('',(1.499994574652789,12.142239040798621,-0.5));
#235=DIRECTION('',(0.0,-1.0,0.0));
#236=VECTOR('',#235,0.992532009548611);
#237=LINE('',#234,#236);
#238=EDGE_CURVE('',#193,#233,#237,.T.);
#239=ORIENTED_EDGE('',*,*,#238,.T.);
#240=CARTESIAN_POINT('',(1.499994574652789,11.14970703125001,0.0));
#241=VERTEX_POINT('',#240);
#242=CARTESIAN_POINT('',(1.499994574652789,11.14970703125001,0.0));
#243=DIRECTION('',(0.0,0.0,-1.0));
#244=VECTOR('',#243,0.5);
#245=LINE('',#242,#244);
#246=EDGE_CURVE('',#241,#233,#245,.T.);
#247=ORIENTED_EDGE('',*,*,#246,.F.);
#248=CARTESIAN_POINT('',(1.499994574652789,12.142239040798621,0.0));
#249=DIRECTION('',(0.0,-1.0,0.0));
#250=VECTOR('',#249,0.992532009548611);
#251=LINE('',#248,#250);
#252=EDGE_CURVE('',#202,#241,#251,.T.);
#253=ORIENTED_EDGE('',*,*,#252,.F.);
#254=ORIENTED_EDGE('',*,*,#207,.T.);
#255=EDGE_LOOP('',(#239,#247,#253,#254));
#256=FACE_OUTER_BOUND('',#255,.T.);
#257=ADVANCED_FACE('',(#256),#231,.T.);
#258=CARTESIAN_POINT('',(1.930347E-014,-0.000418563483034,0.0));
#259=DIRECTION('',(0.0,0.0,-1.0));
#260=DIRECTION('',(0.0,-1.0,0.0));
#261=AXIS2_PLACEMENT_3D('',#258,#259,#260);
#262=CYLINDRICAL_SURFACE('',#261,11.250568185754382);
#263=CARTESIAN_POINT('',(-1.499994574652803,11.149707031250003,-0.5));
#264=VERTEX_POINT('',#263);
#265=CARTESIAN_POINT('',(1.930347E-014,-0.000418563483034,-0.5));
#266=DIRECTION('',(0.0,0.0,-1.0));
#267=DIRECTION('',(0.0,-1.0,0.0));
#268=AXIS2_PLACEMENT_3D('',#265,#266,#267);
#269=CIRCLE('',#268,11.250568185754382);
#270=EDGE_CURVE('',#233,#264,#269,.T.);
#271=ORIENTED_EDGE('',*,*,#270,.T.);
#272=CARTESIAN_POINT('',(-1.499994574652803,11.149707031250003,0.0));
#273=VERTEX_POINT('',#272);
#274=CARTESIAN_POINT('',(-1.499994574652803,11.149707031250003,0.0));
#275=DIRECTION('',(0.0,0.0,-1.0));
#276=VECTOR('',#275,0.5);
#277=LINE('',#274,#276);
#278=EDGE_CURVE('',#273,#264,#277,.T.);
#279=ORIENTED_EDGE('',*,*,#278,.F.);
#280=CARTESIAN_POINT('',(1.930347E-014,-0.000418563483034,0.0));
#281=DIRECTION('',(0.0,0.0,-1.0));
#282=DIRECTION('',(0.0,-1.0,0.0));
#283=AXIS2_PLACEMENT_3D('',#280,#281,#282);
#284=CIRCLE('',#283,11.250568185754382);
#285=EDGE_CURVE('',#241,#273,#284,.T.);
#286=ORIENTED_EDGE('',*,*,#285,.F.);
#287=ORIENTED_EDGE('',*,*,#246,.T.);
#288=EDGE_LOOP('',(#271,#279,#286,#287));
#289=FACE_OUTER_BOUND('',#288,.T.);
#290=ADVANCED_FACE('',(#289),#262,.F.);
#291=CARTESIAN_POINT('',(-1.499994574652803,11.149707031250003,0.0));
#292=DIRECTION('',(1.0,0.0,0.0));
#293=DIRECTION('',(0.0,0.0,-1.0));
#294=AXIS2_PLACEMENT_3D('',#291,#292,#293);
#295=PLANE('',#294);
#296=CARTESIAN_POINT('',(-1.499994574652803,11.149707031250003,-0.5));
#297=DIRECTION('',(0.0,1.0,0.0));
#298=VECTOR('',#297,0.992532009548633);
#299=LINE('',#296,#298);
#300=EDGE_CURVE('',#264,#191,#299,.T.);
#301=ORIENTED_EDGE('',*,*,#300,.T.);
#302=ORIENTED_EDGE('',*,*,#222,.F.);
#303=CARTESIAN_POINT('',(-1.499994574652803,11.149707031250003,0.0));
#304=DIRECTION('',(0.0,1.0,0.0));
#305=VECTOR('',#304,0.992532009548633);
#306=LINE('',#303,#305);
#307=EDGE_CURVE('',#273,#210,#306,.T.);
#308=ORIENTED_EDGE('',*,*,#307,.F.);
#309=ORIENTED_EDGE('',*,*,#278,.T.);
#310=EDGE_LOOP('',(#301,#302,#308,#309));
#311=FACE_OUTER_BOUND('',#310,.T.);
#312=ADVANCED_FACE('',(#311),#295,.T.);
#313=CARTESIAN_POINT('',(0.0,0.0,0.0));
#314=DIRECTION('',(0.0,0.0,-1.0));
#315=DIRECTION('',(0.0,-1.0,0.0));
#316=AXIS2_PLACEMENT_3D('',#313,#314,#315);
#317=CYLINDRICAL_SURFACE('',#316,29.999891493055557);
#318=ORIENTED_EDGE('',*,*,#138,.T.);
#319=CARTESIAN_POINT('',(0.0,0.0,0.0));
#320=DIRECTION('',(0.0,0.0,1.0));
#321=DIRECTION('',(0.0,-1.0,0.0));
#322=AXIS2_PLACEMENT_3D('',#319,#320,#321);
#323=CIRCLE('',#322,29.999891493055557);
#324=EDGE_CURVE('',#159,#133,#323,.T.);
#325=ORIENTED_EDGE('',*,*,#324,.F.);
#326=ORIENTED_EDGE('',*,*,#164,.F.);
#327=CARTESIAN_POINT('',(0.0,0.0,-0.5));
#328=DIRECTION('',(0.0,0.0,1.0));
#329=DIRECTION('',(0.0,-1.0,0.0));
#330=AXIS2_PLACEMENT_3D('',#327,#328,#329);
#331=CIRCLE('',#330,29.999891493055557);
#332=EDGE_CURVE('',#150,#131,#331,.T.);
#333=ORIENTED_EDGE('',*,*,#332,.T.);
#334=EDGE_LOOP('',(#318,#325,#326,#333));
#335=FACE_OUTER_BOUND('',#334,.T.);
#336=ADVANCED_FACE('',(#335),#317,.T.);
#337=CARTESIAN_POINT('',(0.0,0.0,-0.5));
#338=DIRECTION('',(0.0,0.0,1.0));
#339=DIRECTION('',(1.0,0.0,0.0));
#340=AXIS2_PLACEMENT_3D('',#337,#338,#339);
#341=PLANE('',#340);
#342=ORIENTED_EDGE('',*,*,#156,.F.);
#343=ORIENTED_EDGE('',*,*,#147,.F.);
#344=ORIENTED_EDGE('',*,*,#332,.F.);
#345=EDGE_LOOP('',(#342,#343,#344));
#346=FACE_OUTER_BOUND('',#345,.T.);
#347=ORIENTED_EDGE('',*,*,#199,.F.);
#348=ORIENTED_EDGE('',*,*,#300,.F.);
#349=ORIENTED_EDGE('',*,*,#270,.F.);
#350=ORIENTED_EDGE('',*,*,#238,.F.);
#351=EDGE_LOOP('',(#347,#348,#349,#350));
#352=FACE_BOUND('',#351,.T.);
#353=ADVANCED_FACE('',(#346,#352),#341,.F.);
#354=CARTESIAN_POINT('',(0.0,0.0,0.0));
#355=DIRECTION('',(0.0,0.0,1.0));
#356=DIRECTION('',(1.0,0.0,0.0));
#357=AXIS2_PLACEMENT_3D('',#354,#355,#356);
#358=PLANE('',#357);
#359=ORIENTED_EDGE('',*,*,#173,.T.);
#360=ORIENTED_EDGE('',*,*,#324,.T.);
#361=ORIENTED_EDGE('',*,*,#180,.T.);
#362=EDGE_LOOP('',(#359,#360,#361));
#363=FACE_OUTER_BOUND('',#362,.T.);
#364=ORIENTED_EDGE('',*,*,#307,.T.);
#365=ORIENTED_EDGE('',*,*,#216,.T.);
#366=ORIENTED_EDGE('',*,*,#252,.T.);
#367=ORIENTED_EDGE('',*,*,#285,.T.);
#368=EDGE_LOOP('',(#364,#365,#366,#367));
#369=FACE_BOUND('',#368,.T.);
#370=ADVANCED_FACE('',(#363,#369),#358,.T.);
#371=CLOSED_SHELL('',(#184,#226,#257,#290,#312,#336,#353,#370));
#372=MANIFOLD_SOLID_BREP('D004',#371);
#373=CARTESIAN_POINT('',(0.0,12.14223904079863,0.0));
#374=DIRECTION('',(0.0,0.0,1.0));
#375=DIRECTION('',(1.0,0.0,0.0));
#376=AXIS2_PLACEMENT_3D('',#373,#374,#375);
#377=CIRCLE('',#376,1.49999457465279);
#378=CARTESIAN_POINT('',(1.49999457465279,12.14223904079863,0.0));
#379=CARTESIAN_POINT('',(-1.49999457465279,12.14223904079863,0.0));
#380=TRIMMED_CURVE('D003',#377,(PARAMETER_VALUE(359.99999999999903),#378),(PARAMETER_VALUE(180.00000000000102),#379),.T.,.PARAMETER.);
#381=CARTESIAN_POINT('',(0.0,-0.00041856348306,0.0));
#382=DIRECTION('',(0.0,0.0,1.0));
#383=DIRECTION('',(1.0,0.0,0.0));
#384=AXIS2_PLACEMENT_3D('',#381,#382,#383);
#385=CIRCLE('',#384,11.25056818575441);
#386=CARTESIAN_POINT('',(-1.499994574652787,11.14970703125001,0.0));
#387=CARTESIAN_POINT('',(1.499994574652798,11.14970703125001,0.0));
#388=TRIMMED_CURVE('CFF5',#385,(PARAMETER_VALUE(97.661838493159848),#386),(PARAMETER_VALUE(82.338161506840109),#387),.T.,.PARAMETER.);
#389=CARTESIAN_POINT('',(-1.49999457465276,11.149707031250019,0.0));
#390=DIRECTION('',(0.0,1.0,0.0));
#391=VECTOR('',#390,0.99253200954859);
#392=LINE('',#389,#391);
#393=CARTESIAN_POINT('',(-1.49999457465276,12.142239040798609,0.0));
#394=TRIMMED_CURVE('CFF4',#392,(PARAMETER_VALUE(0.0),#389),(PARAMETER_VALUE(1.0),#393),.T.,.PARAMETER.);
#395=CARTESIAN_POINT('',(1.49999457465279,11.149707031250019,0.0));
#396=DIRECTION('',(0.0,1.0,0.0));
#397=VECTOR('',#396,0.99253200954859);
#398=LINE('',#395,#397);
#399=CARTESIAN_POINT('',(1.49999457465279,12.142239040798609,0.0));
#400=TRIMMED_CURVE('CFF3',#398,(PARAMETER_VALUE(0.0),#395),(PARAMETER_VALUE(1.0),#399),.T.,.PARAMETER.);
#401=CARTESIAN_POINT('',(0.0,0.0,0.0));
#402=DIRECTION('',(0.0,0.0,1.0));
#403=DIRECTION('',(1.0,0.0,0.0));
#404=AXIS2_PLACEMENT_3D('',#401,#402,#403);
#405=CIRCLE('CFF2',#404,29.999891493055557);
#406=ADVANCED_BREP_SHAPE_REPRESENTATION('ABSR1',(#372),#28);
#407=SHAPE_REPRESENTATION_RELATIONSHIP('SRRPL1','',#406,#122);
#408=GEOMETRIC_CURVE_SET('GCS1',(#380,#388,#394,#400,#405));
#409=GEOMETRICALLY_BOUNDED_WIREFRAME_SHAPE_REPRESENTATION('GBWSR1',(#408),#28);
#410=SHAPE_REPRESENTATION_RELATIONSHIP('SRRPL2','',#409,#122);
ENDSEC;
END-ISO-10303-21;
