ISO-10303-21;
HEADER;
/****************************************************************
 * Generated by software with PDElib inside                    *
 * PDElib Version v51a, created Fri 09/10/2010                  *
 * ITI Transcendata (http://www.transcendata.com/)              *
 ****************************************************************/
FILE_DESCRIPTION((''),'2;1');
FILE_NAME('3d_LPXAU109.stp','2012-10-03T09:49:30',(''),(''),'Mechanical Desktop 2011','Mechanical Desktop 2011',', , ');
FILE_SCHEMA(('CONFIG_CONTROL_DESIGN'));
ENDSEC;
DATA;
#10=(NAMED_UNIT(*)PLANE_ANGLE_UNIT()SI_UNIT($,.RADIAN.));
#11=DIMENSIONAL_EXPONENTS(0.0,0.0,0.0,0.0,0.0,0.0,0.0);
#12=PLANE_ANGLE_MEASURE_WITH_UNIT(PLANE_ANGLE_MEASURE(0.0174532925),#10);
#16=(CONVERSION_BASED_UNIT('DEGREE',#12)NAMED_UNIT(#11)PLANE_ANGLE_UNIT());
#20=(NAMED_UNIT(*)SI_UNIT($,.STERADIAN.)SOLID_ANGLE_UNIT());
#24=(LENGTH_UNIT()NAMED_UNIT(*)SI_UNIT(.MILLI.,.METRE.));
#26=UNCERTAINTY_MEASURE_WITH_UNIT(LENGTH_MEASURE(0.000001),#24,'DISTANCE_ACCURACY_VALUE','');
#28=(GEOMETRIC_REPRESENTATION_CONTEXT(3)GLOBAL_UNCERTAINTY_ASSIGNED_CONTEXT((#26))GLOBAL_UNIT_ASSIGNED_CONTEXT((#16,#20,#24))REPRESENTATION_CONTEXT('','3D'));
#29=APPLICATION_CONTEXT('CONFIGURATION CONTROLLED 3D DESIGNS OF MECHANICAL PARTS AND ASSEMBLIES');
#30=APPLICATION_PROTOCOL_DEFINITION('INTERNATIONAL STANDARD','config_control_design',1995,#29);
#31=MECHANICAL_CONTEXT('3D Mechanical Parts',#29,'mechanical');
#32=PRODUCT('Product','Product',' ',(#31));
#33=PRODUCT_RELATED_PRODUCT_CATEGORY('detail',$,(#32));
#34=PRODUCT_CATEGORY('part',$);
#35=PRODUCT_CATEGORY_RELATIONSHIP('None','None',#34,#33);
#36=PERSON('1','Design','Joe',$,$,$);
#37=ORGANIZATION($,'None','None');
#38=PERSON_AND_ORGANIZATION(#36,#37);
#39=PERSON_AND_ORGANIZATION_ROLE('design_owner');
#40=CC_DESIGN_PERSON_AND_ORGANIZATION_ASSIGNMENT(#38,#39,(#32));
#41=PRODUCT_DEFINITION_FORMATION_WITH_SPECIFIED_SOURCE('None','None',#32,.BOUGHT.);
#42=PERSON('2','Creator','Joe',$,$,$);
#43=ORGANIZATION($,'None','None');
#44=PERSON_AND_ORGANIZATION(#42,#43);
#45=PERSON_AND_ORGANIZATION_ROLE('creator');
#46=CC_DESIGN_PERSON_AND_ORGANIZATION_ASSIGNMENT(#44,#45,(#41));
#47=PERSON('3','Supplier','Joe',$,$,$);
#48=ORGANIZATION($,'None','None');
#49=PERSON_AND_ORGANIZATION(#47,#48);
#50=PERSON_AND_ORGANIZATION_ROLE('design_supplier');
#51=CC_DESIGN_PERSON_AND_ORGANIZATION_ASSIGNMENT(#49,#50,(#41));
#52=APPROVAL_STATUS('approved');
#53=APPROVAL(#52,'None');
#54=PERSON('4','Approver','Joe',$,$,$);
#55=ORGANIZATION($,'None','None');
#56=PERSON_AND_ORGANIZATION(#54,#55);
#57=APPROVAL_ROLE('approver');
#58=APPROVAL_PERSON_ORGANIZATION(#56,#53,#57);
#59=COORDINATED_UNIVERSAL_TIME_OFFSET(8,$,.EXACT.);
#60=CALENDAR_DATE(1996,29,5);
#61=LOCAL_TIME(12,0,0.0,#59);
#62=DATE_AND_TIME(#60,#61);
#63=APPROVAL_DATE_TIME(#62,#53);
#64=CC_DESIGN_APPROVAL(#53,(#41));
#65=SECURITY_CLASSIFICATION_LEVEL('unclassified');
#66=SECURITY_CLASSIFICATION('security','None',#65);
#67=CC_DESIGN_SECURITY_CLASSIFICATION(#66,(#41));
#68=APPROVAL_STATUS('approved');
#69=APPROVAL(#68,'None');
#70=PERSON('5','Approver','Joe',$,$,$);
#71=ORGANIZATION($,'None','None');
#72=PERSON_AND_ORGANIZATION(#70,#71);
#73=APPROVAL_ROLE('approver');
#74=APPROVAL_PERSON_ORGANIZATION(#72,#69,#73);
#75=COORDINATED_UNIVERSAL_TIME_OFFSET(8,$,.EXACT.);
#76=CALENDAR_DATE(1996,29,5);
#77=LOCAL_TIME(12,0,0.0,#75);
#78=DATE_AND_TIME(#76,#77);
#79=APPROVAL_DATE_TIME(#78,#69);
#80=CC_DESIGN_APPROVAL(#69,(#66));
#81=PERSON('6','Classifier','Joe',$,$,$);
#82=ORGANIZATION($,'None','None');
#83=PERSON_AND_ORGANIZATION(#81,#82);
#84=PERSON_AND_ORGANIZATION_ROLE('classification_officer');
#85=CC_DESIGN_PERSON_AND_ORGANIZATION_ASSIGNMENT(#83,#84,(#66));
#86=COORDINATED_UNIVERSAL_TIME_OFFSET(8,$,.EXACT.);
#87=CALENDAR_DATE(1996,29,5);
#88=LOCAL_TIME(12,0,0.0,#86);
#89=DATE_AND_TIME(#87,#88);
#90=DATE_TIME_ROLE('classification_date');
#91=CC_DESIGN_DATE_AND_TIME_ASSIGNMENT(#89,#90,(#66));
#92=DESIGN_CONTEXT('Design Context',#29,'design');
#93=PRODUCT_DEFINITION('None','None',#41,#92);
#94=PERSON('7','Creator','Joe',$,$,$);
#95=ORGANIZATION($,'None','None');
#96=PERSON_AND_ORGANIZATION(#94,#95);
#97=PERSON_AND_ORGANIZATION_ROLE('creator');
#98=CC_DESIGN_PERSON_AND_ORGANIZATION_ASSIGNMENT(#96,#97,(#93));
#99=COORDINATED_UNIVERSAL_TIME_OFFSET(8,$,.EXACT.);
#100=CALENDAR_DATE(1996,29,5);
#101=LOCAL_TIME(12,0,0.0,#99);
#102=DATE_AND_TIME(#100,#101);
#103=DATE_TIME_ROLE('creation_date');
#104=CC_DESIGN_DATE_AND_TIME_ASSIGNMENT(#102,#103,(#93));
#105=APPROVAL_STATUS('approved');
#106=APPROVAL(#105,'None');
#107=PERSON('8','Approver','Joe',$,$,$);
#108=ORGANIZATION($,'None','None');
#109=PERSON_AND_ORGANIZATION(#107,#108);
#110=APPROVAL_ROLE('approver');
#111=APPROVAL_PERSON_ORGANIZATION(#109,#106,#110);
#112=COORDINATED_UNIVERSAL_TIME_OFFSET(8,$,.EXACT.);
#113=CALENDAR_DATE(1996,29,5);
#114=LOCAL_TIME(12,0,0.0,#112);
#115=DATE_AND_TIME(#113,#114);
#116=APPROVAL_DATE_TIME(#115,#106);
#117=CC_DESIGN_APPROVAL(#106,(#93));
#118=CARTESIAN_POINT('NONE',(0.0,0.0,0.0));
#119=DIRECTION('NONE',(0.0,0.0,1.0));
#120=DIRECTION('NONE',(1.0,0.0,0.0));
#121=AXIS2_PLACEMENT_3D('NONE',#118,#119,#120);
#122=SHAPE_REPRESENTATION('SR1',(#121),#28);
#123=PRODUCT_DEFINITION_SHAPE('PDS1','Test Part',#93);
#124=SHAPE_DEFINITION_REPRESENTATION(#123,#122);
#125=CARTESIAN_POINT('',(0.5,-5.550000000000001,0.75));
#126=DIRECTION('',(0.0,0.0,-1.0));
#127=DIRECTION('',(-0.707106781186548,-0.707106781186548,0.0));
#128=AXIS2_PLACEMENT_3D('',#125,#126,#127);
#129=CYLINDRICAL_SURFACE('',#128,0.5);
#130=CARTESIAN_POINT('',(0.0,-5.550000000000001,0.0));
#131=VERTEX_POINT('',#130);
#132=CARTESIAN_POINT('',(0.5,-6.050000000000001,0.0));
#133=VERTEX_POINT('',#132);
#134=CARTESIAN_POINT('',(0.5,-5.550000000000001,0.0));
#135=DIRECTION('',(0.0,0.0,1.0));
#136=DIRECTION('',(-0.707106781186548,-0.707106781186548,0.0));
#137=AXIS2_PLACEMENT_3D('',#134,#135,#136);
#138=CIRCLE('',#137,0.5);
#139=EDGE_CURVE('',#131,#133,#138,.T.);
#140=ORIENTED_EDGE('',*,*,#139,.T.);
#141=CARTESIAN_POINT('',(0.5,-6.050000000000001,1.5));
#142=VERTEX_POINT('',#141);
#143=CARTESIAN_POINT('',(0.5,-6.050000000000001,0.0));
#144=DIRECTION('',(0.0,0.0,1.0));
#145=VECTOR('',#144,1.5);
#146=LINE('',#143,#145);
#147=EDGE_CURVE('',#133,#142,#146,.T.);
#148=ORIENTED_EDGE('',*,*,#147,.T.);
#149=CARTESIAN_POINT('',(0.0,-5.550000000000001,1.5));
#150=VERTEX_POINT('',#149);
#151=CARTESIAN_POINT('',(0.5,-5.550000000000001,1.5));
#152=DIRECTION('',(0.0,0.0,-1.0));
#153=DIRECTION('',(-0.707106781186548,-0.707106781186548,0.0));
#154=AXIS2_PLACEMENT_3D('',#151,#152,#153);
#155=CIRCLE('',#154,0.5);
#156=EDGE_CURVE('',#142,#150,#155,.T.);
#157=ORIENTED_EDGE('',*,*,#156,.T.);
#158=CARTESIAN_POINT('',(0.0,-5.550000000000001,1.5));
#159=DIRECTION('',(0.0,0.0,-1.0));
#160=VECTOR('',#159,1.5);
#161=LINE('',#158,#160);
#162=EDGE_CURVE('',#150,#131,#161,.T.);
#163=ORIENTED_EDGE('',*,*,#162,.T.);
#164=EDGE_LOOP('',(#140,#148,#157,#163));
#165=FACE_OUTER_BOUND('',#164,.T.);
#166=ADVANCED_FACE('',(#165),#129,.T.);
#167=CARTESIAN_POINT('',(0.0,0.0,0.75));
#168=DIRECTION('',(1.0,0.0,0.0));
#169=DIRECTION('',(0.0,0.0,-1.0));
#170=AXIS2_PLACEMENT_3D('',#167,#168,#169);
#171=PLANE('',#170);
#172=ORIENTED_EDGE('',*,*,#162,.F.);
#173=CARTESIAN_POINT('',(0.0,5.550000000000001,1.5));
#174=VERTEX_POINT('',#173);
#175=CARTESIAN_POINT('',(0.0,5.550000000000001,1.5));
#176=DIRECTION('',(0.0,-1.0,0.0));
#177=VECTOR('',#176,11.100000000000001);
#178=LINE('',#175,#177);
#179=EDGE_CURVE('',#174,#150,#178,.T.);
#180=ORIENTED_EDGE('',*,*,#179,.F.);
#181=CARTESIAN_POINT('',(0.0,5.550000000000001,0.0));
#182=VERTEX_POINT('',#181);
#183=CARTESIAN_POINT('',(0.0,5.550000000000001,0.0));
#184=DIRECTION('',(0.0,0.0,1.0));
#185=VECTOR('',#184,1.5);
#186=LINE('',#183,#185);
#187=EDGE_CURVE('',#182,#174,#186,.T.);
#188=ORIENTED_EDGE('',*,*,#187,.F.);
#189=CARTESIAN_POINT('',(0.0,-5.550000000000001,0.0));
#190=DIRECTION('',(0.0,1.0,0.0));
#191=VECTOR('',#190,11.100000000000001);
#192=LINE('',#189,#191);
#193=EDGE_CURVE('',#131,#182,#192,.T.);
#194=ORIENTED_EDGE('',*,*,#193,.F.);
#195=EDGE_LOOP('',(#172,#180,#188,#194));
#196=FACE_OUTER_BOUND('',#195,.T.);
#197=ADVANCED_FACE('',(#196),#171,.F.);
#198=CARTESIAN_POINT('',(13.749999999999998,0.0,1.5));
#199=DIRECTION('',(0.0,0.0,1.0));
#200=DIRECTION('',(1.0,0.0,0.0));
#201=AXIS2_PLACEMENT_3D('',#198,#199,#200);
#202=PLANE('',#201);
#203=ORIENTED_EDGE('',*,*,#156,.F.);
#204=CARTESIAN_POINT('',(26.999999999999996,-6.050000000000001,1.5));
#205=VERTEX_POINT('',#204);
#206=CARTESIAN_POINT('',(0.5,-6.050000000000001,1.5));
#207=DIRECTION('',(1.0,0.0,0.0));
#208=VECTOR('',#207,26.499999999999996);
#209=LINE('',#206,#208);
#210=EDGE_CURVE('',#142,#205,#209,.T.);
#211=ORIENTED_EDGE('',*,*,#210,.T.);
#212=CARTESIAN_POINT('',(27.499999999999996,-5.550000000000001,1.5));
#213=VERTEX_POINT('',#212);
#214=CARTESIAN_POINT('',(26.999999999999996,-5.550000000000001,1.5));
#215=DIRECTION('',(0.0,0.0,-1.0));
#216=DIRECTION('',(0.707106781186548,-0.707106781186548,0.0));
#217=AXIS2_PLACEMENT_3D('',#214,#215,#216);
#218=CIRCLE('',#217,0.5);
#219=EDGE_CURVE('',#213,#205,#218,.T.);
#220=ORIENTED_EDGE('',*,*,#219,.F.);
#221=CARTESIAN_POINT('',(27.499999999999996,5.550000000000003,1.5));
#222=VERTEX_POINT('',#221);
#223=CARTESIAN_POINT('',(27.499999999999996,-5.550000000000001,1.5));
#224=DIRECTION('',(0.0,1.0,0.0));
#225=VECTOR('',#224,11.100000000000003);
#226=LINE('',#223,#225);
#227=EDGE_CURVE('',#213,#222,#226,.T.);
#228=ORIENTED_EDGE('',*,*,#227,.T.);
#229=CARTESIAN_POINT('',(26.999999999999996,6.050000000000001,1.5));
#230=VERTEX_POINT('',#229);
#231=CARTESIAN_POINT('',(26.999999999999996,5.550000000000003,1.5));
#232=DIRECTION('',(0.0,0.0,-1.0));
#233=DIRECTION('',(0.70710678118655,0.707106781186545,0.0));
#234=AXIS2_PLACEMENT_3D('',#231,#232,#233);
#235=CIRCLE('',#234,0.5);
#236=EDGE_CURVE('',#230,#222,#235,.T.);
#237=ORIENTED_EDGE('',*,*,#236,.F.);
#238=CARTESIAN_POINT('',(0.5,6.050000000000001,1.5));
#239=VERTEX_POINT('',#238);
#240=CARTESIAN_POINT('',(26.999999999999996,6.050000000000001,1.5));
#241=DIRECTION('',(-1.0,0.0,0.0));
#242=VECTOR('',#241,26.499999999999996);
#243=LINE('',#240,#242);
#244=EDGE_CURVE('',#230,#239,#243,.T.);
#245=ORIENTED_EDGE('',*,*,#244,.T.);
#246=CARTESIAN_POINT('',(0.5,5.550000000000001,1.5));
#247=DIRECTION('',(0.0,0.0,-1.0));
#248=DIRECTION('',(-0.707106781186548,0.707106781186548,0.0));
#249=AXIS2_PLACEMENT_3D('',#246,#247,#248);
#250=CIRCLE('',#249,0.5);
#251=EDGE_CURVE('',#174,#239,#250,.T.);
#252=ORIENTED_EDGE('',*,*,#251,.F.);
#253=ORIENTED_EDGE('',*,*,#179,.T.);
#254=EDGE_LOOP('',(#203,#211,#220,#228,#237,#245,#252,#253));
#255=FACE_OUTER_BOUND('',#254,.T.);
#256=ADVANCED_FACE('',(#255),#202,.T.);
#257=CARTESIAN_POINT('',(26.999999999999996,-5.550000000000001,0.75));
#258=DIRECTION('',(0.0,0.0,-1.0));
#259=DIRECTION('',(0.707106781186548,-0.707106781186548,0.0));
#260=AXIS2_PLACEMENT_3D('',#257,#258,#259);
#261=CYLINDRICAL_SURFACE('',#260,0.5);
#262=CARTESIAN_POINT('',(26.999999999999996,-6.050000000000001,0.0));
#263=VERTEX_POINT('',#262);
#264=CARTESIAN_POINT('',(27.499999999999996,-5.550000000000001,0.0));
#265=VERTEX_POINT('',#264);
#266=CARTESIAN_POINT('',(26.999999999999996,-5.550000000000001,0.0));
#267=DIRECTION('',(0.0,0.0,1.0));
#268=DIRECTION('',(0.707106781186548,-0.707106781186548,0.0));
#269=AXIS2_PLACEMENT_3D('',#266,#267,#268);
#270=CIRCLE('',#269,0.5);
#271=EDGE_CURVE('',#263,#265,#270,.T.);
#272=ORIENTED_EDGE('',*,*,#271,.T.);
#273=CARTESIAN_POINT('',(27.499999999999996,-5.550000000000001,0.0));
#274=DIRECTION('',(0.0,0.0,1.0));
#275=VECTOR('',#274,1.5);
#276=LINE('',#273,#275);
#277=EDGE_CURVE('',#265,#213,#276,.T.);
#278=ORIENTED_EDGE('',*,*,#277,.T.);
#279=ORIENTED_EDGE('',*,*,#219,.T.);
#280=CARTESIAN_POINT('',(26.999999999999996,-6.050000000000001,1.5));
#281=DIRECTION('',(0.0,0.0,-1.0));
#282=VECTOR('',#281,1.5);
#283=LINE('',#280,#282);
#284=EDGE_CURVE('',#205,#263,#283,.T.);
#285=ORIENTED_EDGE('',*,*,#284,.T.);
#286=EDGE_LOOP('',(#272,#278,#279,#285));
#287=FACE_OUTER_BOUND('',#286,.T.);
#288=ADVANCED_FACE('',(#287),#261,.T.);
#289=CARTESIAN_POINT('',(27.499999999999996,0.0,0.75));
#290=DIRECTION('',(-1.0,0.0,0.0));
#291=DIRECTION('',(0.0,0.0,1.0));
#292=AXIS2_PLACEMENT_3D('',#289,#290,#291);
#293=PLANE('',#292);
#294=ORIENTED_EDGE('',*,*,#277,.F.);
#295=CARTESIAN_POINT('',(27.499999999999996,5.550000000000003,0.0));
#296=VERTEX_POINT('',#295);
#297=CARTESIAN_POINT('',(27.499999999999996,5.550000000000003,0.0));
#298=DIRECTION('',(0.0,-1.0,0.0));
#299=VECTOR('',#298,11.100000000000003);
#300=LINE('',#297,#299);
#301=EDGE_CURVE('',#296,#265,#300,.T.);
#302=ORIENTED_EDGE('',*,*,#301,.F.);
#303=CARTESIAN_POINT('',(27.499999999999996,5.550000000000003,1.5));
#304=DIRECTION('',(0.0,0.0,-1.0));
#305=VECTOR('',#304,1.5);
#306=LINE('',#303,#305);
#307=EDGE_CURVE('',#222,#296,#306,.T.);
#308=ORIENTED_EDGE('',*,*,#307,.F.);
#309=ORIENTED_EDGE('',*,*,#227,.F.);
#310=EDGE_LOOP('',(#294,#302,#308,#309));
#311=FACE_OUTER_BOUND('',#310,.T.);
#312=ADVANCED_FACE('',(#311),#293,.F.);
#313=CARTESIAN_POINT('',(26.999999999999996,5.550000000000003,0.75));
#314=DIRECTION('',(0.0,0.0,-1.0));
#315=DIRECTION('',(0.70710678118655,0.707106781186545,0.0));
#316=AXIS2_PLACEMENT_3D('',#313,#314,#315);
#317=CYLINDRICAL_SURFACE('',#316,0.5);
#318=CARTESIAN_POINT('',(26.999999999999996,6.050000000000001,0.0));
#319=VERTEX_POINT('',#318);
#320=CARTESIAN_POINT('',(26.999999999999996,5.550000000000003,0.0));
#321=DIRECTION('',(0.0,0.0,1.0));
#322=DIRECTION('',(0.70710678118655,0.707106781186545,0.0));
#323=AXIS2_PLACEMENT_3D('',#320,#321,#322);
#324=CIRCLE('',#323,0.5);
#325=EDGE_CURVE('',#296,#319,#324,.T.);
#326=ORIENTED_EDGE('',*,*,#325,.T.);
#327=CARTESIAN_POINT('',(26.999999999999996,6.050000000000001,0.0));
#328=DIRECTION('',(0.0,0.0,1.0));
#329=VECTOR('',#328,1.5);
#330=LINE('',#327,#329);
#331=EDGE_CURVE('',#319,#230,#330,.T.);
#332=ORIENTED_EDGE('',*,*,#331,.T.);
#333=ORIENTED_EDGE('',*,*,#236,.T.);
#334=ORIENTED_EDGE('',*,*,#307,.T.);
#335=EDGE_LOOP('',(#326,#332,#333,#334));
#336=FACE_OUTER_BOUND('',#335,.T.);
#337=ADVANCED_FACE('',(#336),#317,.T.);
#338=CARTESIAN_POINT('',(0.5,5.550000000000001,0.75));
#339=DIRECTION('',(0.0,0.0,-1.0));
#340=DIRECTION('',(-0.707106781186548,0.707106781186548,0.0));
#341=AXIS2_PLACEMENT_3D('',#338,#339,#340);
#342=CYLINDRICAL_SURFACE('',#341,0.5);
#343=CARTESIAN_POINT('',(0.5,6.050000000000001,0.0));
#344=VERTEX_POINT('',#343);
#345=CARTESIAN_POINT('',(0.5,5.550000000000001,0.0));
#346=DIRECTION('',(0.0,0.0,1.0));
#347=DIRECTION('',(-0.707106781186548,0.707106781186548,0.0));
#348=AXIS2_PLACEMENT_3D('',#345,#346,#347);
#349=CIRCLE('',#348,0.5);
#350=EDGE_CURVE('',#344,#182,#349,.T.);
#351=ORIENTED_EDGE('',*,*,#350,.T.);
#352=ORIENTED_EDGE('',*,*,#187,.T.);
#353=ORIENTED_EDGE('',*,*,#251,.T.);
#354=CARTESIAN_POINT('',(0.5,6.050000000000001,1.5));
#355=DIRECTION('',(0.0,0.0,-1.0));
#356=VECTOR('',#355,1.5);
#357=LINE('',#354,#356);
#358=EDGE_CURVE('',#239,#344,#357,.T.);
#359=ORIENTED_EDGE('',*,*,#358,.T.);
#360=EDGE_LOOP('',(#351,#352,#353,#359));
#361=FACE_OUTER_BOUND('',#360,.T.);
#362=ADVANCED_FACE('',(#361),#342,.T.);
#363=CARTESIAN_POINT('',(13.749999999999998,0.0,0.0));
#364=DIRECTION('',(0.0,0.0,1.0));
#365=DIRECTION('',(1.0,0.0,0.0));
#366=AXIS2_PLACEMENT_3D('',#363,#364,#365);
#367=PLANE('',#366);
#368=ORIENTED_EDGE('',*,*,#139,.F.);
#369=ORIENTED_EDGE('',*,*,#193,.T.);
#370=ORIENTED_EDGE('',*,*,#350,.F.);
#371=CARTESIAN_POINT('',(0.5,6.050000000000001,0.0));
#372=DIRECTION('',(1.0,0.0,0.0));
#373=VECTOR('',#372,26.499999999999996);
#374=LINE('',#371,#373);
#375=EDGE_CURVE('',#344,#319,#374,.T.);
#376=ORIENTED_EDGE('',*,*,#375,.T.);
#377=ORIENTED_EDGE('',*,*,#325,.F.);
#378=ORIENTED_EDGE('',*,*,#301,.T.);
#379=ORIENTED_EDGE('',*,*,#271,.F.);
#380=CARTESIAN_POINT('',(26.999999999999996,-6.050000000000001,0.0));
#381=DIRECTION('',(-1.0,0.0,0.0));
#382=VECTOR('',#381,26.499999999999996);
#383=LINE('',#380,#382);
#384=EDGE_CURVE('',#263,#133,#383,.T.);
#385=ORIENTED_EDGE('',*,*,#384,.T.);
#386=EDGE_LOOP('',(#368,#369,#370,#376,#377,#378,#379,#385));
#387=FACE_OUTER_BOUND('',#386,.T.);
#388=ADVANCED_FACE('',(#387),#367,.F.);
#389=CARTESIAN_POINT('',(13.749999999999998,-6.050000000000001,0.75));
#390=DIRECTION('',(0.0,1.0,0.0));
#391=DIRECTION('',(0.0,0.0,1.0));
#392=AXIS2_PLACEMENT_3D('',#389,#390,#391);
#393=PLANE('',#392);
#394=ORIENTED_EDGE('',*,*,#147,.F.);
#395=ORIENTED_EDGE('',*,*,#384,.F.);
#396=ORIENTED_EDGE('',*,*,#284,.F.);
#397=ORIENTED_EDGE('',*,*,#210,.F.);
#398=EDGE_LOOP('',(#394,#395,#396,#397));
#399=FACE_OUTER_BOUND('',#398,.T.);
#400=ADVANCED_FACE('',(#399),#393,.F.);
#401=CARTESIAN_POINT('',(13.749999999999998,6.050000000000001,0.75));
#402=DIRECTION('',(0.0,-1.0,0.0));
#403=DIRECTION('',(0.0,0.0,-1.0));
#404=AXIS2_PLACEMENT_3D('',#401,#402,#403);
#405=PLANE('',#404);
#406=ORIENTED_EDGE('',*,*,#331,.F.);
#407=ORIENTED_EDGE('',*,*,#375,.F.);
#408=ORIENTED_EDGE('',*,*,#358,.F.);
#409=ORIENTED_EDGE('',*,*,#244,.F.);
#410=EDGE_LOOP('',(#406,#407,#408,#409));
#411=FACE_OUTER_BOUND('',#410,.T.);
#412=ADVANCED_FACE('',(#411),#405,.F.);
#413=CLOSED_SHELL('',(#166,#197,#256,#288,#312,#337,#362,#388,#400,#412));
#414=MANIFOLD_SOLID_BREP('CFED',#413);
#415=ADVANCED_BREP_SHAPE_REPRESENTATION('ABSR1',(#414),#28);
#416=SHAPE_REPRESENTATION_RELATIONSHIP('SRRPL1','',#415,#122);
ENDSEC;
END-ISO-10303-21;
