ISO-10303-21;
HEADER;
/****************************************************************
 * Generated by software with PDElib inside                    *
 * PDElib Version v51a, created Fri 09/10/2010                  *
 * ITI Transcendata (http://www.transcendata.com/)              *
 ****************************************************************/
FILE_DESCRIPTION((''),'2;1');
FILE_NAME('3d_8LM2TA185.stp','2012-10-03T09:49:01',(''),(''),'Mechanical Desktop 2011','Mechanical Desktop 2011',', , ');
FILE_SCHEMA(('CONFIG_CONTROL_DESIGN'));
ENDSEC;
DATA;
#10=(NAMED_UNIT(*)PLANE_ANGLE_UNIT()SI_UNIT($,.RADIAN.));
#11=DIMENSIONAL_EXPONENTS(0.0,0.0,0.0,0.0,0.0,0.0,0.0);
#12=PLANE_ANGLE_MEASURE_WITH_UNIT(PLANE_ANGLE_MEASURE(0.0174532925),#10);
#16=(CONVERSION_BASED_UNIT('DEGREE',#12)NAMED_UNIT(#11)PLANE_ANGLE_UNIT());
#20=(NAMED_UNIT(*)SI_UNIT($,.STERADIAN.)SOLID_ANGLE_UNIT());
#24=(LENGTH_UNIT()NAMED_UNIT(*)SI_UNIT(.MILLI.,.METRE.));
#26=UNCERTAINTY_MEASURE_WITH_UNIT(LENGTH_MEASURE(0.000001),#24,'DISTANCE_ACCURACY_VALUE','');
#28=(GEOMETRIC_REPRESENTATION_CONTEXT(3)GLOBAL_UNCERTAINTY_ASSIGNED_CONTEXT((#26))GLOBAL_UNIT_ASSIGNED_CONTEXT((#16,#20,#24))REPRESENTATION_CONTEXT('','3D'));
#29=APPLICATION_CONTEXT('CONFIGURATION CONTROLLED 3D DESIGNS OF MECHANICAL PARTS AND ASSEMBLIES');
#30=APPLICATION_PROTOCOL_DEFINITION('INTERNATIONAL STANDARD','config_control_design',1995,#29);
#31=MECHANICAL_CONTEXT('3D Mechanical Parts',#29,'mechanical');
#32=PRODUCT('Product','Product',' ',(#31));
#33=PRODUCT_RELATED_PRODUCT_CATEGORY('detail',$,(#32));
#34=PRODUCT_CATEGORY('part',$);
#35=PRODUCT_CATEGORY_RELATIONSHIP('None','None',#34,#33);
#36=PERSON('1','Design','Joe',$,$,$);
#37=ORGANIZATION($,'None','None');
#38=PERSON_AND_ORGANIZATION(#36,#37);
#39=PERSON_AND_ORGANIZATION_ROLE('design_owner');
#40=CC_DESIGN_PERSON_AND_ORGANIZATION_ASSIGNMENT(#38,#39,(#32));
#41=PRODUCT_DEFINITION_FORMATION_WITH_SPECIFIED_SOURCE('None','None',#32,.BOUGHT.);
#42=PERSON('2','Creator','Joe',$,$,$);
#43=ORGANIZATION($,'None','None');
#44=PERSON_AND_ORGANIZATION(#42,#43);
#45=PERSON_AND_ORGANIZATION_ROLE('creator');
#46=CC_DESIGN_PERSON_AND_ORGANIZATION_ASSIGNMENT(#44,#45,(#41));
#47=PERSON('3','Supplier','Joe',$,$,$);
#48=ORGANIZATION($,'None','None');
#49=PERSON_AND_ORGANIZATION(#47,#48);
#50=PERSON_AND_ORGANIZATION_ROLE('design_supplier');
#51=CC_DESIGN_PERSON_AND_ORGANIZATION_ASSIGNMENT(#49,#50,(#41));
#52=APPROVAL_STATUS('approved');
#53=APPROVAL(#52,'None');
#54=PERSON('4','Approver','Joe',$,$,$);
#55=ORGANIZATION($,'None','None');
#56=PERSON_AND_ORGANIZATION(#54,#55);
#57=APPROVAL_ROLE('approver');
#58=APPROVAL_PERSON_ORGANIZATION(#56,#53,#57);
#59=COORDINATED_UNIVERSAL_TIME_OFFSET(8,$,.EXACT.);
#60=CALENDAR_DATE(1996,29,5);
#61=LOCAL_TIME(12,0,0.0,#59);
#62=DATE_AND_TIME(#60,#61);
#63=APPROVAL_DATE_TIME(#62,#53);
#64=CC_DESIGN_APPROVAL(#53,(#41));
#65=SECURITY_CLASSIFICATION_LEVEL('unclassified');
#66=SECURITY_CLASSIFICATION('security','None',#65);
#67=CC_DESIGN_SECURITY_CLASSIFICATION(#66,(#41));
#68=APPROVAL_STATUS('approved');
#69=APPROVAL(#68,'None');
#70=PERSON('5','Approver','Joe',$,$,$);
#71=ORGANIZATION($,'None','None');
#72=PERSON_AND_ORGANIZATION(#70,#71);
#73=APPROVAL_ROLE('approver');
#74=APPROVAL_PERSON_ORGANIZATION(#72,#69,#73);
#75=COORDINATED_UNIVERSAL_TIME_OFFSET(8,$,.EXACT.);
#76=CALENDAR_DATE(1996,29,5);
#77=LOCAL_TIME(12,0,0.0,#75);
#78=DATE_AND_TIME(#76,#77);
#79=APPROVAL_DATE_TIME(#78,#69);
#80=CC_DESIGN_APPROVAL(#69,(#66));
#81=PERSON('6','Classifier','Joe',$,$,$);
#82=ORGANIZATION($,'None','None');
#83=PERSON_AND_ORGANIZATION(#81,#82);
#84=PERSON_AND_ORGANIZATION_ROLE('classification_officer');
#85=CC_DESIGN_PERSON_AND_ORGANIZATION_ASSIGNMENT(#83,#84,(#66));
#86=COORDINATED_UNIVERSAL_TIME_OFFSET(8,$,.EXACT.);
#87=CALENDAR_DATE(1996,29,5);
#88=LOCAL_TIME(12,0,0.0,#86);
#89=DATE_AND_TIME(#87,#88);
#90=DATE_TIME_ROLE('classification_date');
#91=CC_DESIGN_DATE_AND_TIME_ASSIGNMENT(#89,#90,(#66));
#92=DESIGN_CONTEXT('Design Context',#29,'design');
#93=PRODUCT_DEFINITION('None','None',#41,#92);
#94=PERSON('7','Creator','Joe',$,$,$);
#95=ORGANIZATION($,'None','None');
#96=PERSON_AND_ORGANIZATION(#94,#95);
#97=PERSON_AND_ORGANIZATION_ROLE('creator');
#98=CC_DESIGN_PERSON_AND_ORGANIZATION_ASSIGNMENT(#96,#97,(#93));
#99=COORDINATED_UNIVERSAL_TIME_OFFSET(8,$,.EXACT.);
#100=CALENDAR_DATE(1996,29,5);
#101=LOCAL_TIME(12,0,0.0,#99);
#102=DATE_AND_TIME(#100,#101);
#103=DATE_TIME_ROLE('creation_date');
#104=CC_DESIGN_DATE_AND_TIME_ASSIGNMENT(#102,#103,(#93));
#105=APPROVAL_STATUS('approved');
#106=APPROVAL(#105,'None');
#107=PERSON('8','Approver','Joe',$,$,$);
#108=ORGANIZATION($,'None','None');
#109=PERSON_AND_ORGANIZATION(#107,#108);
#110=APPROVAL_ROLE('approver');
#111=APPROVAL_PERSON_ORGANIZATION(#109,#106,#110);
#112=COORDINATED_UNIVERSAL_TIME_OFFSET(8,$,.EXACT.);
#113=CALENDAR_DATE(1996,29,5);
#114=LOCAL_TIME(12,0,0.0,#112);
#115=DATE_AND_TIME(#113,#114);
#116=APPROVAL_DATE_TIME(#115,#106);
#117=CC_DESIGN_APPROVAL(#106,(#93));
#118=CARTESIAN_POINT('NONE',(0.0,0.0,0.0));
#119=DIRECTION('NONE',(0.0,0.0,1.0));
#120=DIRECTION('NONE',(1.0,0.0,0.0));
#121=AXIS2_PLACEMENT_3D('NONE',#118,#119,#120);
#122=SHAPE_REPRESENTATION('SR1',(#121),#28);
#123=PRODUCT_DEFINITION_SHAPE('PDS1','Test Part',#93);
#124=SHAPE_DEFINITION_REPRESENTATION(#123,#122);
#125=CARTESIAN_POINT('',(0.0,-0.001219166463437,13.902677682043757));
#126=DIRECTION('',(-6.123032E-017,0.000087692924099,-0.999999996154976));
#127=DIRECTION('',(5.369466E-021,0.999999996154976,0.000087692924099));
#128=AXIS2_PLACEMENT_3D('',#125,#126,#127);
#129=CONICAL_SURFACE('',#128,17.756207705412937,0.995071407733802);
#130=CARTESIAN_POINT('',(0.0,17.517621391683377,27.50168214995028));
#131=VERTEX_POINT('',#130);
#132=CARTESIAN_POINT('',(0.0,17.992355549669512,0.306787401686433));
#133=VERTEX_POINT('',#132);
#134=CARTESIAN_POINT('',(8.326714E-016,17.517621391683381,27.501682149950284));
#135=DIRECTION('',(-6.122099E-017,0.017454078944168,-0.999847665961276));
#136=VECTOR('',#135,27.199038087585151);
#137=LINE('',#134,#136);
#138=EDGE_CURVE('',#131,#133,#137,.T.);
#139=ORIENTED_EDGE('',*,*,#138,.F.);
#140=CARTESIAN_POINT('',(2.145373E-015,-17.522444528092862,27.498609384097328));
#141=VERTEX_POINT('',#140);
#142=CARTESIAN_POINT('',(0.0,-0.002411568204741,27.500145767023813));
#143=DIRECTION('',(6.123032E-017,-0.000087692924099,0.999999996154976));
#144=DIRECTION('',(5.369466E-021,0.999999996154976,0.000087692924099));
#145=AXIS2_PLACEMENT_3D('',#142,#143,#144);
#146=CIRCLE('',#145,17.520033027253074);
#147=EDGE_CURVE('',#141,#131,#146,.T.);
#148=ORIENTED_EDGE('',*,*,#147,.F.);
#149=CARTESIAN_POINT('',(2.209809E-015,-17.99240907911377,0.303631792440974));
#150=VERTEX_POINT('',#149);
#151=CARTESIAN_POINT('',(2.977998E-015,-17.522444528092862,27.498609384097332));
#152=DIRECTION('',(-5.909448E-017,-0.017278719545432,-0.999850711781949));
#153=VECTOR('',#152,27.199038087585155);
#154=LINE('',#151,#153);
#155=EDGE_CURVE('',#141,#150,#154,.T.);
#156=ORIENTED_EDGE('',*,*,#155,.T.);
#157=CARTESIAN_POINT('',(0.0,-0.000026764722132,0.305209597063703));
#158=DIRECTION('',(6.123032E-017,-0.000087692924099,0.999999996154975));
#159=DIRECTION('',(5.369466E-021,0.999999996154975,0.000087692924099));
#160=AXIS2_PLACEMENT_3D('',#157,#158,#159);
#161=CIRCLE('',#160,17.992382383572796);
#162=EDGE_CURVE('',#150,#133,#161,.T.);
#163=ORIENTED_EDGE('',*,*,#162,.T.);
#164=EDGE_LOOP('',(#139,#148,#156,#163));
#165=FACE_OUTER_BOUND('',#164,.T.);
#166=ADVANCED_FACE('',(#165),#129,.T.);
#167=CARTESIAN_POINT('',(0.0,-0.000017388291163,0.198286136260249));
#168=DIRECTION('',(6.123032E-017,-0.000087692924099,0.999999996154976));
#169=DIRECTION('',(5.369466E-021,0.999999996154975,0.000087692924099));
#170=AXIS2_PLACEMENT_3D('',#167,#168,#169);
#171=CONICAL_SURFACE('',#170,17.950299778355895,21.483453269225475);
#172=CARTESIAN_POINT('',(0.0,17.908209092421266,0.092933099386112));
#173=VERTEX_POINT('',#172);
#174=CARTESIAN_POINT('',(6.643567E-018,17.992355549669508,0.306787401686434));
#175=DIRECTION('',(-5.697821E-017,-0.366150909842076,-0.930555485299947));
#176=VECTOR('',#175,0.229813595941988);
#177=LINE('',#174,#176);
#178=EDGE_CURVE('',#133,#173,#177,.T.);
#179=ORIENTED_EDGE('',*,*,#178,.F.);
#180=ORIENTED_EDGE('',*,*,#162,.F.);
#181=CARTESIAN_POINT('',(2.195753E-015,-17.908225116141661,0.089792251527472));
#182=VERTEX_POINT('',#181);
#183=CARTESIAN_POINT('',(2.209809E-015,-17.99240907911377,0.303631792440973));
#184=DIRECTION('',(-1.018233E-016,0.366314110473098,-0.930491253300268));
#185=VECTOR('',#184,0.229813595941985);
#186=LINE('',#183,#185);
#187=EDGE_CURVE('',#150,#182,#186,.T.);
#188=ORIENTED_EDGE('',*,*,#187,.T.);
#189=CARTESIAN_POINT('',(0.0,-0.000008011860194,0.091362675456793));
#190=DIRECTION('',(6.123032E-017,-0.000087692924099,0.999999996154976));
#191=DIRECTION('',(5.369466E-021,0.999999996154976,0.000087692924099));
#192=AXIS2_PLACEMENT_3D('',#189,#190,#191);
#193=CIRCLE('',#192,17.908217173138993);
#194=EDGE_CURVE('',#182,#173,#193,.T.);
#195=ORIENTED_EDGE('',*,*,#194,.T.);
#196=EDGE_LOOP('',(#179,#180,#188,#195));
#197=FACE_OUTER_BOUND('',#196,.T.);
#198=ADVANCED_FACE('',(#197),#171,.T.);
#199=CARTESIAN_POINT('',(0.0,-0.000004005930097,0.045681337728396));
#200=DIRECTION('',(6.123032E-017,-0.000087692924099,0.999999996154976));
#201=DIRECTION('',(5.369466E-021,0.999999996154976,0.000087692924099));
#202=AXIS2_PLACEMENT_3D('',#199,#200,#201);
#203=CONICAL_SURFACE('',#202,17.802836308622325,66.563847883239504);
#204=CARTESIAN_POINT('',(0.0,17.6974553760585,0.001551941617013));
#205=VERTEX_POINT('',#204);
#206=CARTESIAN_POINT('',(2.893240E-018,17.908209092421266,0.09293309938611));
#207=DIRECTION('',(-2.435787E-017,-0.917468971864821,-0.397807347424992));
#208=VECTOR('',#207,0.229712091444783);
#209=LINE('',#206,#208);
#210=EDGE_CURVE('',#173,#205,#209,.T.);
#211=ORIENTED_EDGE('',*,*,#210,.F.);
#212=ORIENTED_EDGE('',*,*,#194,.F.);
#213=CARTESIAN_POINT('',(2.167099E-015,-17.697455376058503,-0.001551941617012));
#214=VERTEX_POINT('',#213);
#215=CARTESIAN_POINT('',(2.195753E-015,-17.908225116141661,0.089792251527472));
#216=DIRECTION('',(-1.367061E-016,0.91753872753284,-0.397646430233463));
#217=VECTOR('',#216,0.229712091444788);
#218=LINE('',#215,#217);
#219=EDGE_CURVE('',#182,#214,#218,.T.);
#220=ORIENTED_EDGE('',*,*,#219,.T.);
#221=CARTESIAN_POINT('',(0.0,0.0,0.0));
#222=DIRECTION('',(6.123032E-017,-0.000087692924099,0.999999996154975));
#223=DIRECTION('',(5.369466E-021,0.999999996154975,0.000087692924099));
#224=AXIS2_PLACEMENT_3D('',#221,#222,#223);
#225=CIRCLE('',#224,17.697455444105653);
#226=EDGE_CURVE('',#214,#205,#225,.T.);
#227=ORIENTED_EDGE('',*,*,#226,.T.);
#228=EDGE_LOOP('',(#211,#212,#220,#227));
#229=FACE_OUTER_BOUND('',#228,.T.);
#230=ADVANCED_FACE('',(#229),#203,.T.);
#231=CARTESIAN_POINT('',(0.0,-0.000000068047149,0.000775970808506));
#232=DIRECTION('',(-6.123032E-017,0.000087692924099,-0.999999996154976));
#233=DIRECTION('',(5.369466E-021,0.999999996154975,0.000087692924099));
#234=AXIS2_PLACEMENT_3D('',#231,#232,#233);
#235=CONICAL_SURFACE('',#234,8.848727722052823,89.994975565520065);
#236=CARTESIAN_POINT('',(0.0,-0.000000136094298,0.001551941617013));
#237=VERTEX_POINT('',#236);
#238=CARTESIAN_POINT('',(4.751294E-020,-0.000000136094297,0.001551941617013));
#239=DIRECTION('',(0.0,1.0,0.0));
#240=VECTOR('',#239,17.697455512152796);
#241=LINE('',#238,#240);
#242=EDGE_CURVE('',#237,#205,#241,.T.);
#243=ORIENTED_EDGE('',*,*,#242,.F.);
#244=CARTESIAN_POINT('',(4.751294E-020,-0.000000136094298,0.001551941617013));
#245=DIRECTION('',(1.224499E-016,-0.999999984619902,-0.000175385847524));
#246=VECTOR('',#245,17.697455512152803);
#247=LINE('',#244,#246);
#248=EDGE_CURVE('',#237,#214,#247,.T.);
#249=ORIENTED_EDGE('',*,*,#248,.T.);
#250=CARTESIAN_POINT('',(0.0,0.0,0.0));
#251=DIRECTION('',(6.123032E-017,-0.000087692924099,0.999999996154975));
#252=DIRECTION('',(5.369466E-021,0.999999996154975,0.000087692924099));
#253=AXIS2_PLACEMENT_3D('',#250,#251,#252);
#254=CIRCLE('',#253,17.697455444105653);
#255=EDGE_CURVE('',#205,#214,#254,.T.);
#256=ORIENTED_EDGE('',*,*,#255,.F.);
#257=EDGE_LOOP('',(#243,#249,#256));
#258=FACE_OUTER_BOUND('',#257,.T.);
#259=ADVANCED_FACE('',(#258),#235,.F.);
#260=CARTESIAN_POINT('',(0.0,-0.002411635569697,27.500913958487043));
#261=DIRECTION('',(-6.123032E-017,0.000087692924099,-0.999999996154976));
#262=DIRECTION('',(5.369466E-021,0.999999996154976,0.000087692924099));
#263=AXIS2_PLACEMENT_3D('',#260,#261,#262);
#264=CONICAL_SURFACE('',#263,8.760016513626537,89.994975565592611);
#265=CARTESIAN_POINT('',(0.0,-0.002411702934653,27.50168214995028));
#266=VERTEX_POINT('',#265);
#267=CARTESIAN_POINT('',(4.703661E-020,-0.002411702934651,27.50168214995028));
#268=DIRECTION('',(0.0,1.0,0.0));
#269=VECTOR('',#268,17.520033094618029);
#270=LINE('',#267,#269);
#271=EDGE_CURVE('',#266,#131,#270,.T.);
#272=ORIENTED_EDGE('',*,*,#271,.F.);
#273=CARTESIAN_POINT('',(4.703661E-020,-0.002411702934653,27.501682149950284));
#274=DIRECTION('',(1.224499E-016,-0.999999984619902,-0.000175385847524));
#275=VECTOR('',#274,17.520033094618032);
#276=LINE('',#273,#275);
#277=EDGE_CURVE('',#266,#141,#276,.T.);
#278=ORIENTED_EDGE('',*,*,#277,.T.);
#279=ORIENTED_EDGE('',*,*,#147,.T.);
#280=EDGE_LOOP('',(#272,#278,#279));
#281=FACE_OUTER_BOUND('',#280,.T.);
#282=ADVANCED_FACE('',(#281),#264,.T.);
#283=CARTESIAN_POINT('',(0.0,-0.002411635569697,27.500913958487043));
#284=DIRECTION('',(-6.123032E-017,0.000087692924099,-0.999999996154976));
#285=DIRECTION('',(5.369466E-021,0.999999996154976,0.000087692924099));
#286=AXIS2_PLACEMENT_3D('',#283,#284,#285);
#287=CONICAL_SURFACE('',#286,8.760016513626537,89.994975565592611);
#288=ORIENTED_EDGE('',*,*,#271,.T.);
#289=CARTESIAN_POINT('',(0.0,-0.002411568204741,27.500145767023813));
#290=DIRECTION('',(6.123032E-017,-0.000087692924099,0.999999996154976));
#291=DIRECTION('',(5.369466E-021,0.999999996154976,0.000087692924099));
#292=AXIS2_PLACEMENT_3D('',#289,#290,#291);
#293=CIRCLE('',#292,17.520033027253074);
#294=EDGE_CURVE('',#131,#141,#293,.T.);
#295=ORIENTED_EDGE('',*,*,#294,.T.);
#296=ORIENTED_EDGE('',*,*,#277,.F.);
#297=EDGE_LOOP('',(#288,#295,#296));
#298=FACE_OUTER_BOUND('',#297,.T.);
#299=ADVANCED_FACE('',(#298),#287,.T.);
#300=CARTESIAN_POINT('',(0.0,-0.000000068047149,0.000775970808506));
#301=DIRECTION('',(-6.123032E-017,0.000087692924099,-0.999999996154976));
#302=DIRECTION('',(5.369466E-021,0.999999996154975,0.000087692924099));
#303=AXIS2_PLACEMENT_3D('',#300,#301,#302);
#304=CONICAL_SURFACE('',#303,8.848727722052823,89.994975565520065);
#305=ORIENTED_EDGE('',*,*,#242,.T.);
#306=ORIENTED_EDGE('',*,*,#226,.F.);
#307=ORIENTED_EDGE('',*,*,#248,.F.);
#308=EDGE_LOOP('',(#305,#306,#307));
#309=FACE_OUTER_BOUND('',#308,.T.);
#310=ADVANCED_FACE('',(#309),#304,.F.);
#311=CARTESIAN_POINT('',(0.0,-0.000004005930097,0.045681337728396));
#312=DIRECTION('',(6.123032E-017,-0.000087692924099,0.999999996154976));
#313=DIRECTION('',(5.369466E-021,0.999999996154976,0.000087692924099));
#314=AXIS2_PLACEMENT_3D('',#311,#312,#313);
#315=CONICAL_SURFACE('',#314,17.802836308622325,66.563847883239504);
#316=ORIENTED_EDGE('',*,*,#210,.T.);
#317=ORIENTED_EDGE('',*,*,#255,.T.);
#318=ORIENTED_EDGE('',*,*,#219,.F.);
#319=CARTESIAN_POINT('',(0.0,-0.000008011860194,0.091362675456793));
#320=DIRECTION('',(6.123032E-017,-0.000087692924099,0.999999996154976));
#321=DIRECTION('',(5.369466E-021,0.999999996154976,0.000087692924099));
#322=AXIS2_PLACEMENT_3D('',#319,#320,#321);
#323=CIRCLE('',#322,17.908217173138993);
#324=EDGE_CURVE('',#173,#182,#323,.T.);
#325=ORIENTED_EDGE('',*,*,#324,.F.);
#326=EDGE_LOOP('',(#316,#317,#318,#325));
#327=FACE_OUTER_BOUND('',#326,.T.);
#328=ADVANCED_FACE('',(#327),#315,.T.);
#329=CARTESIAN_POINT('',(0.0,-0.000017388291163,0.198286136260249));
#330=DIRECTION('',(6.123032E-017,-0.000087692924099,0.999999996154976));
#331=DIRECTION('',(5.369466E-021,0.999999996154975,0.000087692924099));
#332=AXIS2_PLACEMENT_3D('',#329,#330,#331);
#333=CONICAL_SURFACE('',#332,17.950299778355895,21.483453269225475);
#334=ORIENTED_EDGE('',*,*,#178,.T.);
#335=ORIENTED_EDGE('',*,*,#324,.T.);
#336=ORIENTED_EDGE('',*,*,#187,.F.);
#337=CARTESIAN_POINT('',(0.0,-0.000026764722132,0.305209597063703));
#338=DIRECTION('',(6.123032E-017,-0.000087692924099,0.999999996154975));
#339=DIRECTION('',(5.369466E-021,0.999999996154975,0.000087692924099));
#340=AXIS2_PLACEMENT_3D('',#337,#338,#339);
#341=CIRCLE('',#340,17.992382383572796);
#342=EDGE_CURVE('',#133,#150,#341,.T.);
#343=ORIENTED_EDGE('',*,*,#342,.F.);
#344=EDGE_LOOP('',(#334,#335,#336,#343));
#345=FACE_OUTER_BOUND('',#344,.T.);
#346=ADVANCED_FACE('',(#345),#333,.T.);
#347=CARTESIAN_POINT('',(0.0,-0.001219166463437,13.902677682043757));
#348=DIRECTION('',(-6.123032E-017,0.000087692924099,-0.999999996154976));
#349=DIRECTION('',(5.369466E-021,0.999999996154976,0.000087692924099));
#350=AXIS2_PLACEMENT_3D('',#347,#348,#349);
#351=CONICAL_SURFACE('',#350,17.756207705412937,0.995071407733802);
#352=ORIENTED_EDGE('',*,*,#138,.T.);
#353=ORIENTED_EDGE('',*,*,#342,.T.);
#354=ORIENTED_EDGE('',*,*,#155,.F.);
#355=ORIENTED_EDGE('',*,*,#294,.F.);
#356=EDGE_LOOP('',(#352,#353,#354,#355));
#357=FACE_OUTER_BOUND('',#356,.T.);
#358=ADVANCED_FACE('',(#357),#351,.T.);
#359=CLOSED_SHELL('',(#166,#198,#230,#259,#282,#299,#310,#328,#346,#358));
#360=MANIFOLD_SOLID_BREP('CD29',#359);
#361=ADVANCED_BREP_SHAPE_REPRESENTATION('ABSR1',(#360),#28);
#362=SHAPE_REPRESENTATION_RELATIONSHIP('SRRPL1','',#361,#122);
ENDSEC;
END-ISO-10303-21;
