ISO-10303-21;
HEADER;
/* Generated by software containing ST-Developer
 * from STEP Tools, Inc. (www.steptools.com) 
 */

FILE_DESCRIPTION(
/* description */ (''),
/* implementation_level */ '2;1');

FILE_NAME(
/* name */ 'c:\\dwg_dest\\3d_HR7X87.stp',
/* time_stamp */ '2018-11-19T07:34:47+01:00',
/* author */ ('Andrzej'),
/* organization */ (''),
/* preprocessor_version */ 'ST-DEVELOPER v16.13',
/* originating_system */ 'AutoCAD Mechanical',
/* authorisation */ '');

FILE_SCHEMA (('AUTOMOTIVE_DESIGN { 1 0 10303 214 3 1 1 }'));
ENDSEC;

DATA;
#10=MECHANICAL_DESIGN_GEOMETRIC_PRESENTATION_REPRESENTATION('',(#14),#270);
#11=PRESENTATION_LAYER_ASSIGNMENT('0','0',(#15));
#12=SHAPE_REPRESENTATION_RELATIONSHIP('SRR','None',#276,#13);
#13=ADVANCED_BREP_SHAPE_REPRESENTATION('',(#15),#269);
#14=STYLED_ITEM('',(#285),#15);
#15=MANIFOLD_SOLID_BREP('379',#150);
#16=PLANE('',#175);
#17=PLANE('',#176);
#18=TOROIDAL_SURFACE('',#155,1.19999999999998,0.5);
#19=TOROIDAL_SURFACE('',#159,1.99999999999999,0.5);
#20=TOROIDAL_SURFACE('',#163,1.50000000000001,0.5);
#21=TOROIDAL_SURFACE('',#167,1.99999999999999,0.5);
#22=TOROIDAL_SURFACE('',#171,1.19999999999999,0.5);
#23=FACE_BOUND('',#48,.T.);
#24=FACE_BOUND('',#50,.T.);
#25=FACE_BOUND('',#52,.T.);
#26=FACE_BOUND('',#54,.T.);
#27=FACE_BOUND('',#56,.T.);
#28=FACE_BOUND('',#58,.T.);
#29=FACE_BOUND('',#60,.T.);
#30=FACE_BOUND('',#62,.T.);
#31=FACE_BOUND('',#64,.T.);
#32=FACE_BOUND('',#66,.T.);
#33=FACE_BOUND('',#68,.T.);
#34=FACE_OUTER_BOUND('',#47,.T.);
#35=FACE_OUTER_BOUND('',#49,.T.);
#36=FACE_OUTER_BOUND('',#51,.T.);
#37=FACE_OUTER_BOUND('',#53,.T.);
#38=FACE_OUTER_BOUND('',#55,.T.);
#39=FACE_OUTER_BOUND('',#57,.T.);
#40=FACE_OUTER_BOUND('',#59,.T.);
#41=FACE_OUTER_BOUND('',#61,.T.);
#42=FACE_OUTER_BOUND('',#63,.T.);
#43=FACE_OUTER_BOUND('',#65,.T.);
#44=FACE_OUTER_BOUND('',#67,.T.);
#45=FACE_OUTER_BOUND('',#69,.T.);
#46=FACE_OUTER_BOUND('',#70,.T.);
#47=EDGE_LOOP('',(#107));
#48=EDGE_LOOP('',(#108));
#49=EDGE_LOOP('',(#109));
#50=EDGE_LOOP('',(#110));
#51=EDGE_LOOP('',(#111));
#52=EDGE_LOOP('',(#112));
#53=EDGE_LOOP('',(#113));
#54=EDGE_LOOP('',(#114));
#55=EDGE_LOOP('',(#115));
#56=EDGE_LOOP('',(#116));
#57=EDGE_LOOP('',(#117));
#58=EDGE_LOOP('',(#118));
#59=EDGE_LOOP('',(#119));
#60=EDGE_LOOP('',(#120));
#61=EDGE_LOOP('',(#121));
#62=EDGE_LOOP('',(#122));
#63=EDGE_LOOP('',(#123));
#64=EDGE_LOOP('',(#124));
#65=EDGE_LOOP('',(#125));
#66=EDGE_LOOP('',(#126));
#67=EDGE_LOOP('',(#127));
#68=EDGE_LOOP('',(#128));
#69=EDGE_LOOP('',(#129));
#70=EDGE_LOOP('',(#130));
#71=CIRCLE('',#153,0.5);
#72=CIRCLE('',#154,0.5);
#73=CIRCLE('',#156,0.5);
#74=CIRCLE('',#158,0.5);
#75=CIRCLE('',#160,0.5);
#76=CIRCLE('',#162,0.5);
#77=CIRCLE('',#164,0.5);
#78=CIRCLE('',#166,0.5);
#79=CIRCLE('',#168,0.5);
#80=CIRCLE('',#170,0.5);
#81=CIRCLE('',#172,0.5);
#82=CIRCLE('',#174,0.5);
#83=VERTEX_POINT('',#231);
#84=VERTEX_POINT('',#233);
#85=VERTEX_POINT('',#236);
#86=VERTEX_POINT('',#239);
#87=VERTEX_POINT('',#242);
#88=VERTEX_POINT('',#245);
#89=VERTEX_POINT('',#248);
#90=VERTEX_POINT('',#251);
#91=VERTEX_POINT('',#254);
#92=VERTEX_POINT('',#257);
#93=VERTEX_POINT('',#260);
#94=VERTEX_POINT('',#263);
#95=EDGE_CURVE('',#83,#83,#71,.T.);
#96=EDGE_CURVE('',#84,#84,#72,.T.);
#97=EDGE_CURVE('',#85,#85,#73,.T.);
#98=EDGE_CURVE('',#86,#86,#74,.T.);
#99=EDGE_CURVE('',#87,#87,#75,.T.);
#100=EDGE_CURVE('',#88,#88,#76,.T.);
#101=EDGE_CURVE('',#89,#89,#77,.T.);
#102=EDGE_CURVE('',#90,#90,#78,.T.);
#103=EDGE_CURVE('',#91,#91,#79,.T.);
#104=EDGE_CURVE('',#92,#92,#80,.T.);
#105=EDGE_CURVE('',#93,#93,#81,.T.);
#106=EDGE_CURVE('',#94,#94,#82,.T.);
#107=ORIENTED_EDGE('',*,*,#95,.T.);
#108=ORIENTED_EDGE('',*,*,#96,.F.);
#109=ORIENTED_EDGE('',*,*,#97,.T.);
#110=ORIENTED_EDGE('',*,*,#95,.F.);
#111=ORIENTED_EDGE('',*,*,#98,.T.);
#112=ORIENTED_EDGE('',*,*,#97,.F.);
#113=ORIENTED_EDGE('',*,*,#99,.T.);
#114=ORIENTED_EDGE('',*,*,#98,.F.);
#115=ORIENTED_EDGE('',*,*,#100,.T.);
#116=ORIENTED_EDGE('',*,*,#99,.F.);
#117=ORIENTED_EDGE('',*,*,#101,.T.);
#118=ORIENTED_EDGE('',*,*,#100,.F.);
#119=ORIENTED_EDGE('',*,*,#102,.T.);
#120=ORIENTED_EDGE('',*,*,#101,.F.);
#121=ORIENTED_EDGE('',*,*,#103,.T.);
#122=ORIENTED_EDGE('',*,*,#102,.F.);
#123=ORIENTED_EDGE('',*,*,#104,.T.);
#124=ORIENTED_EDGE('',*,*,#103,.F.);
#125=ORIENTED_EDGE('',*,*,#105,.T.);
#126=ORIENTED_EDGE('',*,*,#104,.F.);
#127=ORIENTED_EDGE('',*,*,#105,.F.);
#128=ORIENTED_EDGE('',*,*,#106,.T.);
#129=ORIENTED_EDGE('',*,*,#96,.T.);
#130=ORIENTED_EDGE('',*,*,#106,.F.);
#131=CYLINDRICAL_SURFACE('',#152,0.5);
#132=CYLINDRICAL_SURFACE('',#157,0.5);
#133=CYLINDRICAL_SURFACE('',#161,0.5);
#134=CYLINDRICAL_SURFACE('',#165,0.5);
#135=CYLINDRICAL_SURFACE('',#169,0.5);
#136=CYLINDRICAL_SURFACE('',#173,0.5);
#137=ADVANCED_FACE('',(#34,#23),#131,.T.);
#138=ADVANCED_FACE('',(#35,#24),#18,.T.);
#139=ADVANCED_FACE('',(#36,#25),#132,.T.);
#140=ADVANCED_FACE('',(#37,#26),#19,.T.);
#141=ADVANCED_FACE('',(#38,#27),#133,.T.);
#142=ADVANCED_FACE('',(#39,#28),#20,.T.);
#143=ADVANCED_FACE('',(#40,#29),#134,.T.);
#144=ADVANCED_FACE('',(#41,#30),#21,.T.);
#145=ADVANCED_FACE('',(#42,#31),#135,.T.);
#146=ADVANCED_FACE('',(#43,#32),#22,.T.);
#147=ADVANCED_FACE('',(#44,#33),#136,.T.);
#148=ADVANCED_FACE('',(#45),#16,.T.);
#149=ADVANCED_FACE('',(#46),#17,.F.);
#150=CLOSED_SHELL('',(#137,#138,#139,#140,#141,#142,#143,#144,#145,#146,
#147,#148,#149));
#151=AXIS2_PLACEMENT_3D('placement',#229,#177,#178);
#152=AXIS2_PLACEMENT_3D('',#230,#179,#180);
#153=AXIS2_PLACEMENT_3D('',#232,#181,#182);
#154=AXIS2_PLACEMENT_3D('',#234,#183,#184);
#155=AXIS2_PLACEMENT_3D('',#235,#185,#186);
#156=AXIS2_PLACEMENT_3D('',#237,#187,#188);
#157=AXIS2_PLACEMENT_3D('',#238,#189,#190);
#158=AXIS2_PLACEMENT_3D('',#240,#191,#192);
#159=AXIS2_PLACEMENT_3D('',#241,#193,#194);
#160=AXIS2_PLACEMENT_3D('',#243,#195,#196);
#161=AXIS2_PLACEMENT_3D('',#244,#197,#198);
#162=AXIS2_PLACEMENT_3D('',#246,#199,#200);
#163=AXIS2_PLACEMENT_3D('',#247,#201,#202);
#164=AXIS2_PLACEMENT_3D('',#249,#203,#204);
#165=AXIS2_PLACEMENT_3D('',#250,#205,#206);
#166=AXIS2_PLACEMENT_3D('',#252,#207,#208);
#167=AXIS2_PLACEMENT_3D('',#253,#209,#210);
#168=AXIS2_PLACEMENT_3D('',#255,#211,#212);
#169=AXIS2_PLACEMENT_3D('',#256,#213,#214);
#170=AXIS2_PLACEMENT_3D('',#258,#215,#216);
#171=AXIS2_PLACEMENT_3D('',#259,#217,#218);
#172=AXIS2_PLACEMENT_3D('',#261,#219,#220);
#173=AXIS2_PLACEMENT_3D('',#262,#221,#222);
#174=AXIS2_PLACEMENT_3D('',#264,#223,#224);
#175=AXIS2_PLACEMENT_3D('',#265,#225,#226);
#176=AXIS2_PLACEMENT_3D('',#266,#227,#228);
#177=DIRECTION('axis',(0.,0.,1.));
#178=DIRECTION('refdir',(1.,0.,0.));
#179=DIRECTION('center_axis',(0.707106781186552,-4.32978028117744E-17,0.707106781186543));
#180=DIRECTION('ref_axis',(0.707106781186543,4.32978028117749E-17,-0.707106781186552));
#181=DIRECTION('center_axis',(0.707106781186593,-4.32978028117719E-17,0.707106781186502));
#182=DIRECTION('ref_axis',(0.707106781186502,4.32978028117774E-17,-0.707106781186593));
#183=DIRECTION('center_axis',(0.707106781186593,-4.32978028117719E-17,0.707106781186502));
#184=DIRECTION('ref_axis',(0.707106781186502,4.32978028117774E-17,-0.707106781186593));
#185=DIRECTION('center_axis',(-3.74939945665464E-33,-1.,-6.12323399573677E-17));
#186=DIRECTION('ref_axis',(-6.5307236742657E-17,6.12323399573677E-17,-1.));
#187=DIRECTION('center_axis',(-6.39545674071352E-14,6.12323399573677E-17,
-1.));
#188=DIRECTION('ref_axis',(-1.,-3.91233841384343E-30,6.39545674071352E-14));
#189=DIRECTION('center_axis',(-2.30436335139803E-16,6.12323399573677E-17,
-1.));
#190=DIRECTION('ref_axis',(-1.,-1.03607565551557E-32,2.30436335139803E-16));
#191=DIRECTION('center_axis',(-6.39545674071352E-14,6.12323399573677E-17,
-1.));
#192=DIRECTION('ref_axis',(-1.,-3.91233841384343E-30,6.39545674071352E-14));
#193=DIRECTION('center_axis',(-3.74939945665464E-33,-1.,-6.12323399573677E-17));
#194=DIRECTION('ref_axis',(-8.88178419700128E-17,6.12323399573676E-17,-1.));
#195=DIRECTION('center_axis',(-0.961261695938302,-1.68779202763401E-17,
0.275637355817059));
#196=DIRECTION('ref_axis',(0.275637355817059,-5.88603029536899E-17,0.961261695938302));
#197=DIRECTION('center_axis',(-0.961261695938319,-1.68779202763364E-17,
0.275637355816999));
#198=DIRECTION('ref_axis',(0.275637355816999,-5.88603029536909E-17,0.961261695938319));
#199=DIRECTION('center_axis',(-0.961261695938302,-1.68779202763401E-17,
0.275637355817059));
#200=DIRECTION('ref_axis',(0.275637355817059,-5.88603029536899E-17,0.961261695938302));
#201=DIRECTION('center_axis',(3.74939945665464E-33,1.,6.12323399573677E-17));
#202=DIRECTION('ref_axis',(0.,-6.12323399573675E-17,1.));
#203=DIRECTION('center_axis',(-0.961261695938336,1.68779202763327E-17,-0.275637355816939));
#204=DIRECTION('ref_axis',(-0.275637355816939,-5.8860302953692E-17,0.961261695938336));
#205=DIRECTION('center_axis',(-0.961261695938319,1.68779202763364E-17,-0.275637355816999));
#206=DIRECTION('ref_axis',(-0.275637355816999,-5.88603029536909E-17,0.961261695938319));
#207=DIRECTION('center_axis',(-0.961261695938336,1.68779202763327E-17,-0.275637355816939));
#208=DIRECTION('ref_axis',(-0.275637355816939,-5.8860302953692E-17,0.961261695938336));
#209=DIRECTION('center_axis',(-3.74939945665464E-33,-1.,-6.12323399573677E-17));
#210=DIRECTION('ref_axis',(0.,6.12323399573676E-17,-1.));
#211=DIRECTION('center_axis',(-3.82856869892695E-16,-6.12323399573677E-17,
1.));
#212=DIRECTION('ref_axis',(1.,-2.71926214689378E-32,3.82856869892695E-16));
#213=DIRECTION('center_axis',(6.12323399573677E-17,-6.12323399573677E-17,
1.));
#214=DIRECTION('ref_axis',(-3.74939945665464E-33,-1.,-6.12323399573677E-17));
#215=DIRECTION('center_axis',(-3.82856869892695E-16,-6.12323399573677E-17,
1.));
#216=DIRECTION('ref_axis',(1.,-2.71926214689378E-32,3.82856869892695E-16));
#217=DIRECTION('center_axis',(-3.74939945665464E-33,-1.,-6.12323399573677E-17));
#218=DIRECTION('ref_axis',(0.,6.12323399573676E-17,-1.));
#219=DIRECTION('center_axis',(0.707106781186552,4.32978028117744E-17,-0.707106781186543));
#220=DIRECTION('ref_axis',(-0.707106781186543,4.32978028117749E-17,-0.707106781186552));
#221=DIRECTION('center_axis',(-0.707106781186552,-4.32978028117744E-17,
0.707106781186543));
#222=DIRECTION('ref_axis',(0.707106781186543,-4.32978028117749E-17,0.707106781186552));
#223=DIRECTION('center_axis',(0.707106781186552,4.32978028117744E-17,-0.707106781186543));
#224=DIRECTION('ref_axis',(-0.707106781186543,4.32978028117749E-17,-0.707106781186552));
#225=DIRECTION('center_axis',(0.707106781186593,-4.32978028117719E-17,0.707106781186502));
#226=DIRECTION('ref_axis',(0.707106781186502,4.32978028117774E-17,-0.707106781186593));
#227=DIRECTION('center_axis',(0.707106781186552,4.32978028117744E-17,-0.707106781186543));
#228=DIRECTION('ref_axis',(-0.707106781186543,4.32978028117749E-17,-0.707106781186552));
#229=CARTESIAN_POINT('',(0.,0.,0.));
#230=CARTESIAN_POINT('Origin',(1.23991564708649,0.,0.0963648965474277));
#231=CARTESIAN_POINT('',(1.59346903767979,0.,-0.257188494045963));
#232=CARTESIAN_POINT('Origin',(1.23991564708649,0.,0.0963648965474277));
#233=CARTESIAN_POINT('',(2.65412920945959,0.,0.803471677733924));
#234=CARTESIAN_POINT('Origin',(2.30057581886639,0.,1.15702506832723));
#235=CARTESIAN_POINT('Origin',(0.391387509662692,0.,0.944893033971226));
#236=CARTESIAN_POINT('',(-1.30861249033731,0.,0.944893033971226));
#237=CARTESIAN_POINT('Origin',(-0.80861249033731,0.,0.944893033971226));
#238=CARTESIAN_POINT('Origin',(-0.80861249033731,-3.5527136788005E-15,63.9347829884604));
#239=CARTESIAN_POINT('',(-1.30861249033731,-3.5527136788005E-15,63.9347829884604));
#240=CARTESIAN_POINT('Origin',(-0.80861249033731,-3.5527136788005E-15,63.9347829884604));
#241=CARTESIAN_POINT('Origin',(1.19138750966269,-3.5527136788005E-15,63.9347829884604));
#242=CARTESIAN_POINT('',(1.8804808992052,-3.5527136788005E-15,66.3379372283061));
#243=CARTESIAN_POINT('Origin',(1.74266222129669,-3.5527136788005E-15,65.857306380337));
#244=CARTESIAN_POINT('Origin',(16.9279314759372,-3.5527136788005E-15,61.5030004900637));
#245=CARTESIAN_POINT('',(17.0657501538457,-3.5527136788005E-15,61.9836313380329));
#246=CARTESIAN_POINT('Origin',(16.9279314759372,-3.5527136788005E-15,61.5030004900637));
#247=CARTESIAN_POINT('Origin',(17.3413875096627,-3.5527136788005E-15,62.9448930339712));
#248=CARTESIAN_POINT('',(17.6170248654797,-3.5527136788005E-15,61.9836313380329));
#249=CARTESIAN_POINT('Origin',(17.7548435433882,-3.5527136788005E-15,61.5030004900637));
#250=CARTESIAN_POINT('Origin',(32.9401127980287,-3.5527136788005E-15,65.857306380337));
#251=CARTESIAN_POINT('',(32.8022941201202,-3.5527136788005E-15,66.3379372283062));
#252=CARTESIAN_POINT('Origin',(32.9401127980287,-3.5527136788005E-15,65.857306380337));
#253=CARTESIAN_POINT('Origin',(33.4913875096627,-3.5527136788005E-15,63.9347829884604));
#254=CARTESIAN_POINT('',(35.9913875096627,-3.5527136788005E-15,63.9347829884605));
#255=CARTESIAN_POINT('Origin',(35.4913875096627,-3.5527136788005E-15,63.9347829884605));
#256=CARTESIAN_POINT('Origin',(35.4913875096627,0.,0.944893033971226));
#257=CARTESIAN_POINT('',(35.9913875096627,0.,0.944893033971226));
#258=CARTESIAN_POINT('Origin',(35.4913875096627,0.,0.944893033971226));
#259=CARTESIAN_POINT('Origin',(34.2913875096627,0.,0.944893033971226));
#260=CARTESIAN_POINT('',(33.0893059816456,0.,-0.257188494045863));
#261=CARTESIAN_POINT('Origin',(33.4428593722388,0.,0.0963648965473141));
#262=CARTESIAN_POINT('Origin',(33.4428593722388,0.,0.0963648965473141));
#263=CARTESIAN_POINT('',(32.0286458098657,0.,0.803471677733924));
#264=CARTESIAN_POINT('Origin',(32.382199200459,0.,1.15702506832723));
#265=CARTESIAN_POINT('Origin',(2.30057581886639,0.,1.15702506832723));
#266=CARTESIAN_POINT('Origin',(32.382199200459,0.,1.15702506832723));
#267=UNCERTAINTY_MEASURE_WITH_UNIT(LENGTH_MEASURE(0.01),#271,
'DISTANCE_ACCURACY_VALUE',
'Maximum model space distance between geometric entities at asserted c
onnectivities');
#268=UNCERTAINTY_MEASURE_WITH_UNIT(LENGTH_MEASURE(0.01),#271,
'DISTANCE_ACCURACY_VALUE',
'Maximum model space distance between geometric entities at asserted c
onnectivities');
#269=(
GEOMETRIC_REPRESENTATION_CONTEXT(3)
GLOBAL_UNCERTAINTY_ASSIGNED_CONTEXT((#267))
GLOBAL_UNIT_ASSIGNED_CONTEXT((#271,#273,#272))
REPRESENTATION_CONTEXT('','3D')
);
#270=(
GEOMETRIC_REPRESENTATION_CONTEXT(3)
GLOBAL_UNCERTAINTY_ASSIGNED_CONTEXT((#268))
GLOBAL_UNIT_ASSIGNED_CONTEXT((#271,#273,#272))
REPRESENTATION_CONTEXT('','3D')
);
#271=(
LENGTH_UNIT()
NAMED_UNIT(*)
SI_UNIT(.MILLI.,.METRE.)
);
#272=(
NAMED_UNIT(*)
SI_UNIT($,.STERADIAN.)
SOLID_ANGLE_UNIT()
);
#273=(
NAMED_UNIT(*)
PLANE_ANGLE_UNIT()
SI_UNIT($,.RADIAN.)
);
#274=SHAPE_DEFINITION_REPRESENTATION(#275,#276);
#275=PRODUCT_DEFINITION_SHAPE('',$,#278);
#276=SHAPE_REPRESENTATION('',(#151),#269);
#277=PRODUCT_DEFINITION_CONTEXT('part definition',#282,'design');
#278=PRODUCT_DEFINITION('Product','Product',#279,#277);
#279=PRODUCT_DEFINITION_FORMATION('',$,#284);
#280=PRODUCT_RELATED_PRODUCT_CATEGORY('Product','Product',(#284));
#281=APPLICATION_PROTOCOL_DEFINITION('international standard',
'automotive_design',2009,#282);
#282=APPLICATION_CONTEXT(
'Core Data for Automotive Mechanical Design Process');
#283=PRODUCT_CONTEXT('part definition',#282,'mechanical');
#284=PRODUCT('Product','Product',$,(#283));
#285=PRESENTATION_STYLE_ASSIGNMENT((#286));
#286=SURFACE_STYLE_USAGE(.BOTH.,#287);
#287=SURFACE_SIDE_STYLE('',(#288));
#288=SURFACE_STYLE_FILL_AREA(#289);
#289=FILL_AREA_STYLE('',(#290));
#290=FILL_AREA_STYLE_COLOUR('',#291);
#291=COLOUR_RGB('',1.,1.,1.);
ENDSEC;
END-ISO-10303-21;
