ISO-10303-21;
HEADER;
/* Generated by software containing ST-Developer
 * from STEP Tools, Inc. (www.steptools.com) 
 */

FILE_DESCRIPTION(
/* description */ (''),
/* implementation_level */ '2;1');

FILE_NAME(
/* name */ 'c:\\dwg_dest\\3d_HR5X30.stp',
/* time_stamp */ '2018-11-19T07:34:46+01:00',
/* author */ ('Andrzej'),
/* organization */ (''),
/* preprocessor_version */ 'ST-DEVELOPER v16.13',
/* originating_system */ 'AutoCAD Mechanical',
/* authorisation */ '');

FILE_SCHEMA (('AUTOMOTIVE_DESIGN { 1 0 10303 214 3 1 1 }'));
ENDSEC;

DATA;
#10=MECHANICAL_DESIGN_GEOMETRIC_PRESENTATION_REPRESENTATION('',(#14),#436);
#11=PRESENTATION_LAYER_ASSIGNMENT('0','0',(#15));
#12=SHAPE_REPRESENTATION_RELATIONSHIP('SRR','None',#442,#13);
#13=ADVANCED_BREP_SHAPE_REPRESENTATION('',(#15),#435);
#14=STYLED_ITEM('',(#451),#15);
#15=MANIFOLD_SOLID_BREP('33F',#276);
#16=FACE_OUTER_BOUND('',#30,.T.);
#17=FACE_OUTER_BOUND('',#31,.T.);
#18=FACE_OUTER_BOUND('',#32,.T.);
#19=FACE_OUTER_BOUND('',#33,.T.);
#20=FACE_OUTER_BOUND('',#34,.T.);
#21=FACE_OUTER_BOUND('',#35,.T.);
#22=FACE_OUTER_BOUND('',#36,.T.);
#23=FACE_OUTER_BOUND('',#37,.T.);
#24=FACE_OUTER_BOUND('',#38,.T.);
#25=FACE_OUTER_BOUND('',#39,.T.);
#26=FACE_OUTER_BOUND('',#40,.T.);
#27=FACE_OUTER_BOUND('',#41,.T.);
#28=FACE_OUTER_BOUND('',#42,.T.);
#29=FACE_OUTER_BOUND('',#43,.T.);
#30=EDGE_LOOP('',(#176,#177,#178,#179,#180,#181,#182,#183,#184,#185,#186,
#187));
#31=EDGE_LOOP('',(#188,#189,#190,#191));
#32=EDGE_LOOP('',(#192,#193,#194,#195));
#33=EDGE_LOOP('',(#196,#197,#198,#199));
#34=EDGE_LOOP('',(#200,#201,#202,#203));
#35=EDGE_LOOP('',(#204,#205,#206,#207));
#36=EDGE_LOOP('',(#208,#209,#210,#211));
#37=EDGE_LOOP('',(#212,#213,#214,#215));
#38=EDGE_LOOP('',(#216,#217,#218,#219));
#39=EDGE_LOOP('',(#220,#221,#222,#223));
#40=EDGE_LOOP('',(#224,#225,#226,#227));
#41=EDGE_LOOP('',(#228,#229,#230,#231,#232,#233,#234,#235,#236,#237,#238,
#239));
#42=EDGE_LOOP('',(#240,#241,#242,#243));
#43=EDGE_LOOP('',(#244,#245,#246,#247));
#44=LINE('',#362,#80);
#45=LINE('',#364,#81);
#46=LINE('',#366,#82);
#47=LINE('',#368,#83);
#48=LINE('',#370,#84);
#49=LINE('',#372,#85);
#50=LINE('',#374,#86);
#51=LINE('',#376,#87);
#52=LINE('',#378,#88);
#53=LINE('',#380,#89);
#54=LINE('',#382,#90);
#55=LINE('',#383,#91);
#56=LINE('',#387,#92);
#57=LINE('',#388,#93);
#58=LINE('',#389,#94);
#59=LINE('',#393,#95);
#60=LINE('',#394,#96);
#61=LINE('',#395,#97);
#62=LINE('',#397,#98);
#63=LINE('',#399,#99);
#64=LINE('',#402,#100);
#65=LINE('',#404,#101);
#66=LINE('',#405,#102);
#67=LINE('',#408,#103);
#68=LINE('',#409,#104);
#69=LINE('',#412,#105);
#70=LINE('',#413,#106);
#71=LINE('',#415,#107);
#72=LINE('',#418,#108);
#73=LINE('',#420,#109);
#74=LINE('',#421,#110);
#75=LINE('',#424,#111);
#76=LINE('',#425,#112);
#77=LINE('',#428,#113);
#78=LINE('',#429,#114);
#79=LINE('',#431,#115);
#80=VECTOR('',#296,1.);
#81=VECTOR('',#297,1.);
#82=VECTOR('',#298,1.);
#83=VECTOR('',#299,1.);
#84=VECTOR('',#300,1.);
#85=VECTOR('',#301,1.);
#86=VECTOR('',#302,1.);
#87=VECTOR('',#303,1.);
#88=VECTOR('',#304,1.);
#89=VECTOR('',#305,1.);
#90=VECTOR('',#306,1.);
#91=VECTOR('',#307,1.);
#92=VECTOR('',#310,1.);
#93=VECTOR('',#311,1.);
#94=VECTOR('',#312,1.);
#95=VECTOR('',#315,1.);
#96=VECTOR('',#316,1.);
#97=VECTOR('',#317,1.);
#98=VECTOR('',#320,1.);
#99=VECTOR('',#323,1.);
#100=VECTOR('',#326,1.);
#101=VECTOR('',#327,1.);
#102=VECTOR('',#328,1.);
#103=VECTOR('',#331,1.);
#104=VECTOR('',#332,1.);
#105=VECTOR('',#335,1.);
#106=VECTOR('',#336,1.);
#107=VECTOR('',#339,1.);
#108=VECTOR('',#342,1.);
#109=VECTOR('',#343,1.);
#110=VECTOR('',#344,1.);
#111=VECTOR('',#347,1.);
#112=VECTOR('',#348,1.);
#113=VECTOR('',#351,1.);
#114=VECTOR('',#352,1.);
#115=VECTOR('',#355,1.);
#116=VERTEX_POINT('',#360);
#117=VERTEX_POINT('',#361);
#118=VERTEX_POINT('',#363);
#119=VERTEX_POINT('',#365);
#120=VERTEX_POINT('',#367);
#121=VERTEX_POINT('',#369);
#122=VERTEX_POINT('',#371);
#123=VERTEX_POINT('',#373);
#124=VERTEX_POINT('',#375);
#125=VERTEX_POINT('',#377);
#126=VERTEX_POINT('',#379);
#127=VERTEX_POINT('',#381);
#128=VERTEX_POINT('',#385);
#129=VERTEX_POINT('',#386);
#130=VERTEX_POINT('',#391);
#131=VERTEX_POINT('',#392);
#132=VERTEX_POINT('',#401);
#133=VERTEX_POINT('',#403);
#134=VERTEX_POINT('',#407);
#135=VERTEX_POINT('',#411);
#136=VERTEX_POINT('',#417);
#137=VERTEX_POINT('',#419);
#138=VERTEX_POINT('',#423);
#139=VERTEX_POINT('',#427);
#140=EDGE_CURVE('',#116,#117,#44,.T.);
#141=EDGE_CURVE('',#118,#117,#45,.T.);
#142=EDGE_CURVE('',#118,#119,#46,.T.);
#143=EDGE_CURVE('',#119,#120,#47,.T.);
#144=EDGE_CURVE('',#120,#121,#48,.T.);
#145=EDGE_CURVE('',#122,#121,#49,.T.);
#146=EDGE_CURVE('',#123,#122,#50,.T.);
#147=EDGE_CURVE('',#124,#123,#51,.T.);
#148=EDGE_CURVE('',#125,#124,#52,.T.);
#149=EDGE_CURVE('',#126,#125,#53,.T.);
#150=EDGE_CURVE('',#126,#127,#54,.T.);
#151=EDGE_CURVE('',#127,#116,#55,.T.);
#152=EDGE_CURVE('',#128,#129,#56,.T.);
#153=EDGE_CURVE('',#123,#128,#57,.T.);
#154=EDGE_CURVE('',#122,#129,#58,.T.);
#155=EDGE_CURVE('',#130,#131,#59,.T.);
#156=EDGE_CURVE('',#125,#130,#60,.T.);
#157=EDGE_CURVE('',#124,#131,#61,.T.);
#158=EDGE_CURVE('',#131,#128,#62,.T.);
#159=EDGE_CURVE('',#129,#130,#63,.T.);
#160=EDGE_CURVE('',#118,#132,#64,.T.);
#161=EDGE_CURVE('',#133,#132,#65,.T.);
#162=EDGE_CURVE('',#119,#133,#66,.T.);
#163=EDGE_CURVE('',#134,#133,#67,.T.);
#164=EDGE_CURVE('',#120,#134,#68,.T.);
#165=EDGE_CURVE('',#135,#134,#69,.T.);
#166=EDGE_CURVE('',#121,#135,#70,.T.);
#167=EDGE_CURVE('',#132,#135,#71,.T.);
#168=EDGE_CURVE('',#127,#136,#72,.T.);
#169=EDGE_CURVE('',#137,#136,#73,.T.);
#170=EDGE_CURVE('',#116,#137,#74,.T.);
#171=EDGE_CURVE('',#138,#137,#75,.T.);
#172=EDGE_CURVE('',#117,#138,#76,.T.);
#173=EDGE_CURVE('',#139,#138,#77,.T.);
#174=EDGE_CURVE('',#126,#139,#78,.T.);
#175=EDGE_CURVE('',#136,#139,#79,.T.);
#176=ORIENTED_EDGE('',*,*,#140,.T.);
#177=ORIENTED_EDGE('',*,*,#141,.F.);
#178=ORIENTED_EDGE('',*,*,#142,.T.);
#179=ORIENTED_EDGE('',*,*,#143,.T.);
#180=ORIENTED_EDGE('',*,*,#144,.T.);
#181=ORIENTED_EDGE('',*,*,#145,.F.);
#182=ORIENTED_EDGE('',*,*,#146,.F.);
#183=ORIENTED_EDGE('',*,*,#147,.F.);
#184=ORIENTED_EDGE('',*,*,#148,.F.);
#185=ORIENTED_EDGE('',*,*,#149,.F.);
#186=ORIENTED_EDGE('',*,*,#150,.T.);
#187=ORIENTED_EDGE('',*,*,#151,.T.);
#188=ORIENTED_EDGE('',*,*,#152,.F.);
#189=ORIENTED_EDGE('',*,*,#153,.F.);
#190=ORIENTED_EDGE('',*,*,#146,.T.);
#191=ORIENTED_EDGE('',*,*,#154,.T.);
#192=ORIENTED_EDGE('',*,*,#155,.F.);
#193=ORIENTED_EDGE('',*,*,#156,.F.);
#194=ORIENTED_EDGE('',*,*,#148,.T.);
#195=ORIENTED_EDGE('',*,*,#157,.T.);
#196=ORIENTED_EDGE('',*,*,#158,.F.);
#197=ORIENTED_EDGE('',*,*,#157,.F.);
#198=ORIENTED_EDGE('',*,*,#147,.T.);
#199=ORIENTED_EDGE('',*,*,#153,.T.);
#200=ORIENTED_EDGE('',*,*,#152,.T.);
#201=ORIENTED_EDGE('',*,*,#159,.T.);
#202=ORIENTED_EDGE('',*,*,#155,.T.);
#203=ORIENTED_EDGE('',*,*,#158,.T.);
#204=ORIENTED_EDGE('',*,*,#142,.F.);
#205=ORIENTED_EDGE('',*,*,#160,.T.);
#206=ORIENTED_EDGE('',*,*,#161,.F.);
#207=ORIENTED_EDGE('',*,*,#162,.F.);
#208=ORIENTED_EDGE('',*,*,#143,.F.);
#209=ORIENTED_EDGE('',*,*,#162,.T.);
#210=ORIENTED_EDGE('',*,*,#163,.F.);
#211=ORIENTED_EDGE('',*,*,#164,.F.);
#212=ORIENTED_EDGE('',*,*,#144,.F.);
#213=ORIENTED_EDGE('',*,*,#164,.T.);
#214=ORIENTED_EDGE('',*,*,#165,.F.);
#215=ORIENTED_EDGE('',*,*,#166,.F.);
#216=ORIENTED_EDGE('',*,*,#165,.T.);
#217=ORIENTED_EDGE('',*,*,#163,.T.);
#218=ORIENTED_EDGE('',*,*,#161,.T.);
#219=ORIENTED_EDGE('',*,*,#167,.T.);
#220=ORIENTED_EDGE('',*,*,#151,.F.);
#221=ORIENTED_EDGE('',*,*,#168,.T.);
#222=ORIENTED_EDGE('',*,*,#169,.F.);
#223=ORIENTED_EDGE('',*,*,#170,.F.);
#224=ORIENTED_EDGE('',*,*,#140,.F.);
#225=ORIENTED_EDGE('',*,*,#170,.T.);
#226=ORIENTED_EDGE('',*,*,#171,.F.);
#227=ORIENTED_EDGE('',*,*,#172,.F.);
#228=ORIENTED_EDGE('',*,*,#172,.T.);
#229=ORIENTED_EDGE('',*,*,#173,.F.);
#230=ORIENTED_EDGE('',*,*,#174,.F.);
#231=ORIENTED_EDGE('',*,*,#149,.T.);
#232=ORIENTED_EDGE('',*,*,#156,.T.);
#233=ORIENTED_EDGE('',*,*,#159,.F.);
#234=ORIENTED_EDGE('',*,*,#154,.F.);
#235=ORIENTED_EDGE('',*,*,#145,.T.);
#236=ORIENTED_EDGE('',*,*,#166,.T.);
#237=ORIENTED_EDGE('',*,*,#167,.F.);
#238=ORIENTED_EDGE('',*,*,#160,.F.);
#239=ORIENTED_EDGE('',*,*,#141,.T.);
#240=ORIENTED_EDGE('',*,*,#150,.F.);
#241=ORIENTED_EDGE('',*,*,#174,.T.);
#242=ORIENTED_EDGE('',*,*,#175,.F.);
#243=ORIENTED_EDGE('',*,*,#168,.F.);
#244=ORIENTED_EDGE('',*,*,#175,.T.);
#245=ORIENTED_EDGE('',*,*,#173,.T.);
#246=ORIENTED_EDGE('',*,*,#171,.T.);
#247=ORIENTED_EDGE('',*,*,#169,.T.);
#248=PLANE('',#278);
#249=PLANE('',#279);
#250=PLANE('',#280);
#251=PLANE('',#281);
#252=PLANE('',#282);
#253=PLANE('',#283);
#254=PLANE('',#284);
#255=PLANE('',#285);
#256=PLANE('',#286);
#257=PLANE('',#287);
#258=PLANE('',#288);
#259=PLANE('',#289);
#260=PLANE('',#290);
#261=PLANE('',#291);
#262=ADVANCED_FACE('',(#16),#248,.F.);
#263=ADVANCED_FACE('',(#17),#249,.T.);
#264=ADVANCED_FACE('',(#18),#250,.T.);
#265=ADVANCED_FACE('',(#19),#251,.T.);
#266=ADVANCED_FACE('',(#20),#252,.T.);
#267=ADVANCED_FACE('',(#21),#253,.T.);
#268=ADVANCED_FACE('',(#22),#254,.T.);
#269=ADVANCED_FACE('',(#23),#255,.T.);
#270=ADVANCED_FACE('',(#24),#256,.T.);
#271=ADVANCED_FACE('',(#25),#257,.T.);
#272=ADVANCED_FACE('',(#26),#258,.T.);
#273=ADVANCED_FACE('',(#27),#259,.T.);
#274=ADVANCED_FACE('',(#28),#260,.T.);
#275=ADVANCED_FACE('',(#29),#261,.T.);
#276=CLOSED_SHELL('',(#262,#263,#264,#265,#266,#267,#268,#269,#270,#271,
#272,#273,#274,#275));
#277=AXIS2_PLACEMENT_3D('placement',#358,#292,#293);
#278=AXIS2_PLACEMENT_3D('',#359,#294,#295);
#279=AXIS2_PLACEMENT_3D('',#384,#308,#309);
#280=AXIS2_PLACEMENT_3D('',#390,#313,#314);
#281=AXIS2_PLACEMENT_3D('',#396,#318,#319);
#282=AXIS2_PLACEMENT_3D('',#398,#321,#322);
#283=AXIS2_PLACEMENT_3D('',#400,#324,#325);
#284=AXIS2_PLACEMENT_3D('',#406,#329,#330);
#285=AXIS2_PLACEMENT_3D('',#410,#333,#334);
#286=AXIS2_PLACEMENT_3D('',#414,#337,#338);
#287=AXIS2_PLACEMENT_3D('',#416,#340,#341);
#288=AXIS2_PLACEMENT_3D('',#422,#345,#346);
#289=AXIS2_PLACEMENT_3D('',#426,#349,#350);
#290=AXIS2_PLACEMENT_3D('',#430,#353,#354);
#291=AXIS2_PLACEMENT_3D('',#432,#356,#357);
#292=DIRECTION('axis',(0.,0.,1.));
#293=DIRECTION('refdir',(1.,0.,0.));
#294=DIRECTION('center_axis',(0.,0.,1.));
#295=DIRECTION('ref_axis',(1.,-1.83697019872103E-16,0.));
#296=DIRECTION('',(0.500000000000087,0.866025403784388,0.));
#297=DIRECTION('',(-1.,2.1149707557686E-16,0.));
#298=DIRECTION('',(0.500000000000092,-0.866025403784386,0.));
#299=DIRECTION('',(1.,-6.34946119179007E-15,0.));
#300=DIRECTION('',(0.500000000000001,0.866025403784438,0.));
#301=DIRECTION('',(-1.,2.1149707557686E-16,0.));
#302=DIRECTION('',(1.83697019872103E-16,1.,0.));
#303=DIRECTION('',(1.,-2.94897242691129E-16,0.));
#304=DIRECTION('',(-1.83697019872103E-16,-1.,0.));
#305=DIRECTION('',(-1.,2.1149707557686E-16,0.));
#306=DIRECTION('',(0.499999999999985,-0.866025403784447,0.));
#307=DIRECTION('',(1.,6.34946119179012E-15,0.));
#308=DIRECTION('center_axis',(1.,-1.83697019872103E-16,0.));
#309=DIRECTION('ref_axis',(0.,0.,-1.));
#310=DIRECTION('',(1.83697019872103E-16,1.,0.));
#311=DIRECTION('',(0.,0.,1.));
#312=DIRECTION('',(0.,0.,1.));
#313=DIRECTION('center_axis',(-1.,1.83697019872103E-16,0.));
#314=DIRECTION('ref_axis',(0.,0.,1.));
#315=DIRECTION('',(-1.83697019872103E-16,-1.,0.));
#316=DIRECTION('',(0.,0.,1.));
#317=DIRECTION('',(0.,0.,1.));
#318=DIRECTION('center_axis',(-2.94897242691129E-16,-1.,0.));
#319=DIRECTION('ref_axis',(-1.,2.94897242691129E-16,0.));
#320=DIRECTION('',(1.,-2.94897242691129E-16,0.));
#321=DIRECTION('center_axis',(0.,0.,1.));
#322=DIRECTION('ref_axis',(1.,-1.83697019872103E-16,0.));
#323=DIRECTION('',(-1.,2.1149707557686E-16,0.));
#324=DIRECTION('center_axis',(-0.866025403784386,-0.500000000000092,0.));
#325=DIRECTION('ref_axis',(-0.500000000000092,0.866025403784386,0.));
#326=DIRECTION('',(0.,0.,-1.));
#327=DIRECTION('',(-0.500000000000092,0.866025403784386,0.));
#328=DIRECTION('',(0.,0.,-1.));
#329=DIRECTION('center_axis',(-6.34946119179006E-15,-1.,0.));
#330=DIRECTION('ref_axis',(-1.,6.34946119179007E-15,0.));
#331=DIRECTION('',(-1.,6.34946119179007E-15,0.));
#332=DIRECTION('',(0.,0.,-1.));
#333=DIRECTION('center_axis',(0.866025403784438,-0.500000000000001,0.));
#334=DIRECTION('ref_axis',(-0.500000000000001,-0.866025403784438,0.));
#335=DIRECTION('',(-0.500000000000001,-0.866025403784438,0.));
#336=DIRECTION('',(0.,0.,-1.));
#337=DIRECTION('center_axis',(0.,0.,-1.));
#338=DIRECTION('ref_axis',(-1.,0.,0.));
#339=DIRECTION('',(1.,-2.63163976207437E-15,0.));
#340=DIRECTION('center_axis',(6.34946119179012E-15,-1.,0.));
#341=DIRECTION('ref_axis',(-1.,-6.34946119179012E-15,0.));
#342=DIRECTION('',(0.,0.,-1.));
#343=DIRECTION('',(-1.,-6.34946119179012E-15,0.));
#344=DIRECTION('',(0.,0.,-1.));
#345=DIRECTION('center_axis',(0.866025403784389,-0.500000000000087,0.));
#346=DIRECTION('ref_axis',(-0.500000000000087,-0.866025403784388,0.));
#347=DIRECTION('',(-0.500000000000087,-0.866025403784388,0.));
#348=DIRECTION('',(0.,0.,-1.));
#349=DIRECTION('center_axis',(0.,1.,0.));
#350=DIRECTION('ref_axis',(1.,0.,0.));
#351=DIRECTION('',(1.,0.,0.));
#352=DIRECTION('',(0.,0.,-1.));
#353=DIRECTION('center_axis',(-0.866025403784447,-0.499999999999985,0.));
#354=DIRECTION('ref_axis',(-0.499999999999985,0.866025403784447,0.));
#355=DIRECTION('',(-0.499999999999985,0.866025403784447,0.));
#356=DIRECTION('center_axis',(0.,0.,-1.));
#357=DIRECTION('ref_axis',(-1.,0.,0.));
#358=CARTESIAN_POINT('',(0.,0.,0.));
#359=CARTESIAN_POINT('Origin',(15.6,4.50000000000001,3.5527136788005E-15));
#360=CARTESIAN_POINT('',(6.238119784648,3.70000000000003,0.));
#361=CARTESIAN_POINT('',(6.69999999999979,4.5,0.));
#362=CARTESIAN_POINT('',(6.238119784648,3.70000000000003,0.));
#363=CARTESIAN_POINT('',(8.89999999999961,4.50000000000001,0.));
#364=CARTESIAN_POINT('',(15.6,4.50000000000001,3.5527136788005E-15));
#365=CARTESIAN_POINT('',(9.36188021535142,3.70000000000002,0.));
#366=CARTESIAN_POINT('',(8.89999999999961,4.50000000000001,0.));
#367=CARTESIAN_POINT('',(13.8381197846481,3.69999999999999,0.));
#368=CARTESIAN_POINT('',(9.36188021535142,3.70000000000002,0.));
#369=CARTESIAN_POINT('',(14.2999999999998,4.5,0.));
#370=CARTESIAN_POINT('',(13.8381197846481,3.69999999999999,0.));
#371=CARTESIAN_POINT('',(15.6,4.50000000000001,3.5527136788005E-15));
#372=CARTESIAN_POINT('',(15.6,4.50000000000001,3.5527136788005E-15));
#373=CARTESIAN_POINT('',(15.6,-4.5,3.5527136788005E-15));
#374=CARTESIAN_POINT('',(15.6,-4.5,3.5527136788005E-15));
#375=CARTESIAN_POINT('',(-8.88178419700125E-16,-4.5,3.5527136788005E-15));
#376=CARTESIAN_POINT('',(-8.88178419700125E-16,-4.5,3.5527136788005E-15));
#377=CARTESIAN_POINT('',(8.88178419700125E-16,4.50000000000001,3.5527136788005E-15));
#378=CARTESIAN_POINT('',(8.88178419700125E-16,4.50000000000001,3.5527136788005E-15));
#379=CARTESIAN_POINT('',(1.29999999999973,4.5,0.));
#380=CARTESIAN_POINT('',(15.6,4.50000000000001,3.5527136788005E-15));
#381=CARTESIAN_POINT('',(1.76188021535141,3.7,0.));
#382=CARTESIAN_POINT('',(1.29999999999973,4.5,0.));
#383=CARTESIAN_POINT('',(1.76188021535141,3.7,0.));
#384=CARTESIAN_POINT('Origin',(15.6,-4.5,3.5527136788005E-15));
#385=CARTESIAN_POINT('',(15.6,-4.5,1.5));
#386=CARTESIAN_POINT('',(15.6,4.50000000000001,1.5));
#387=CARTESIAN_POINT('',(15.6,-4.5,1.5));
#388=CARTESIAN_POINT('',(15.6,-4.5,3.5527136788005E-15));
#389=CARTESIAN_POINT('',(15.6,4.50000000000001,3.5527136788005E-15));
#390=CARTESIAN_POINT('Origin',(8.88178419700125E-16,4.50000000000001,3.5527136788005E-15));
#391=CARTESIAN_POINT('',(8.88178419700125E-16,4.50000000000001,1.5));
#392=CARTESIAN_POINT('',(-8.88178419700125E-16,-4.5,1.5));
#393=CARTESIAN_POINT('',(8.88178419700125E-16,4.50000000000001,1.5));
#394=CARTESIAN_POINT('',(8.88178419700125E-16,4.50000000000001,3.5527136788005E-15));
#395=CARTESIAN_POINT('',(-8.88178419700125E-16,-4.5,3.5527136788005E-15));
#396=CARTESIAN_POINT('Origin',(-8.88178419700125E-16,-4.5,3.5527136788005E-15));
#397=CARTESIAN_POINT('',(-8.88178419700125E-16,-4.5,1.5));
#398=CARTESIAN_POINT('Origin',(15.6,4.50000000000001,1.5));
#399=CARTESIAN_POINT('',(15.6,4.50000000000001,1.5));
#400=CARTESIAN_POINT('Origin',(9.36188021535142,3.70000000000002,0.));
#401=CARTESIAN_POINT('',(8.89999999999961,4.50000000000001,-6.));
#402=CARTESIAN_POINT('',(8.89999999999961,4.50000000000001,0.));
#403=CARTESIAN_POINT('',(9.36188021535142,3.70000000000002,-6.));
#404=CARTESIAN_POINT('',(8.89999999999961,4.50000000000001,-6.));
#405=CARTESIAN_POINT('',(9.36188021535142,3.70000000000002,0.));
#406=CARTESIAN_POINT('Origin',(13.8381197846481,3.69999999999999,0.));
#407=CARTESIAN_POINT('',(13.8381197846481,3.69999999999999,-6.));
#408=CARTESIAN_POINT('',(9.36188021535142,3.70000000000002,-6.));
#409=CARTESIAN_POINT('',(13.8381197846481,3.69999999999999,0.));
#410=CARTESIAN_POINT('Origin',(14.2999999999998,4.5,0.));
#411=CARTESIAN_POINT('',(14.2999999999998,4.5,-6.));
#412=CARTESIAN_POINT('',(13.8381197846481,3.69999999999999,-6.));
#413=CARTESIAN_POINT('',(14.2999999999998,4.5,0.));
#414=CARTESIAN_POINT('Origin',(11.5999999999997,4.1315175471612,-6.));
#415=CARTESIAN_POINT('',(14.2999999999998,4.5,-6.));
#416=CARTESIAN_POINT('Origin',(6.238119784648,3.70000000000003,0.));
#417=CARTESIAN_POINT('',(1.76188021535141,3.7,-6.));
#418=CARTESIAN_POINT('',(1.76188021535141,3.7,0.));
#419=CARTESIAN_POINT('',(6.238119784648,3.70000000000003,-6.));
#420=CARTESIAN_POINT('',(1.76188021535141,3.7,-6.));
#421=CARTESIAN_POINT('',(6.238119784648,3.70000000000003,0.));
#422=CARTESIAN_POINT('Origin',(6.69999999999979,4.5,0.));
#423=CARTESIAN_POINT('',(6.69999999999979,4.5,-6.));
#424=CARTESIAN_POINT('',(6.238119784648,3.70000000000003,-6.));
#425=CARTESIAN_POINT('',(6.69999999999979,4.5,0.));
#426=CARTESIAN_POINT('Origin',(1.29999999999973,4.5,0.));
#427=CARTESIAN_POINT('',(1.29999999999973,4.5,-6.));
#428=CARTESIAN_POINT('',(6.69999999999979,4.5,-6.));
#429=CARTESIAN_POINT('',(1.29999999999973,4.5,0.));
#430=CARTESIAN_POINT('Origin',(1.76188021535141,3.7,0.));
#431=CARTESIAN_POINT('',(1.29999999999973,4.5,-6.));
#432=CARTESIAN_POINT('Origin',(3.99999999999974,4.13151754716121,-6.));
#433=UNCERTAINTY_MEASURE_WITH_UNIT(LENGTH_MEASURE(0.01),#437,
'DISTANCE_ACCURACY_VALUE',
'Maximum model space distance between geometric entities at asserted c
onnectivities');
#434=UNCERTAINTY_MEASURE_WITH_UNIT(LENGTH_MEASURE(0.01),#437,
'DISTANCE_ACCURACY_VALUE',
'Maximum model space distance between geometric entities at asserted c
onnectivities');
#435=(
GEOMETRIC_REPRESENTATION_CONTEXT(3)
GLOBAL_UNCERTAINTY_ASSIGNED_CONTEXT((#433))
GLOBAL_UNIT_ASSIGNED_CONTEXT((#437,#439,#438))
REPRESENTATION_CONTEXT('','3D')
);
#436=(
GEOMETRIC_REPRESENTATION_CONTEXT(3)
GLOBAL_UNCERTAINTY_ASSIGNED_CONTEXT((#434))
GLOBAL_UNIT_ASSIGNED_CONTEXT((#437,#439,#438))
REPRESENTATION_CONTEXT('','3D')
);
#437=(
LENGTH_UNIT()
NAMED_UNIT(*)
SI_UNIT(.MILLI.,.METRE.)
);
#438=(
NAMED_UNIT(*)
SI_UNIT($,.STERADIAN.)
SOLID_ANGLE_UNIT()
);
#439=(
NAMED_UNIT(*)
PLANE_ANGLE_UNIT()
SI_UNIT($,.RADIAN.)
);
#440=SHAPE_DEFINITION_REPRESENTATION(#441,#442);
#441=PRODUCT_DEFINITION_SHAPE('',$,#444);
#442=SHAPE_REPRESENTATION('',(#277),#435);
#443=PRODUCT_DEFINITION_CONTEXT('part definition',#448,'design');
#444=PRODUCT_DEFINITION('Product','Product',#445,#443);
#445=PRODUCT_DEFINITION_FORMATION('',$,#450);
#446=PRODUCT_RELATED_PRODUCT_CATEGORY('Product','Product',(#450));
#447=APPLICATION_PROTOCOL_DEFINITION('international standard',
'automotive_design',2009,#448);
#448=APPLICATION_CONTEXT(
'Core Data for Automotive Mechanical Design Process');
#449=PRODUCT_CONTEXT('part definition',#448,'mechanical');
#450=PRODUCT('Product','Product',$,(#449));
#451=PRESENTATION_STYLE_ASSIGNMENT((#452));
#452=SURFACE_STYLE_USAGE(.BOTH.,#453);
#453=SURFACE_SIDE_STYLE('',(#454));
#454=SURFACE_STYLE_FILL_AREA(#455);
#455=FILL_AREA_STYLE('',(#456));
#456=FILL_AREA_STYLE_COLOUR('',#457);
#457=COLOUR_RGB('',1.,1.,1.);
ENDSEC;
END-ISO-10303-21;
