ISO-10303-21;
HEADER;
/* Generated by software containing ST-Developer
 * from STEP Tools, Inc. (www.steptools.com) 
 */

FILE_DESCRIPTION(
/* description */ (''),
/* implementation_level */ '2;1');

FILE_NAME(
/* name */ 'c:\\dwg_dest\\3d_HR1X3016.stp',
/* time_stamp */ '2018-11-19T07:34:45+01:00',
/* author */ ('Andrzej'),
/* organization */ (''),
/* preprocessor_version */ 'ST-DEVELOPER v16.13',
/* originating_system */ 'AutoCAD Mechanical',
/* authorisation */ '');

FILE_SCHEMA (('AUTOMOTIVE_DESIGN { 1 0 10303 214 3 1 1 }'));
ENDSEC;

DATA;
#10=MECHANICAL_DESIGN_GEOMETRIC_PRESENTATION_REPRESENTATION('',(#14),#568);
#11=PRESENTATION_LAYER_ASSIGNMENT('0','0',(#15));
#12=SHAPE_REPRESENTATION_RELATIONSHIP('SRR','None',#574,#13);
#13=ADVANCED_BREP_SHAPE_REPRESENTATION('',(#15),#567);
#14=STYLED_ITEM('',(#583),#15);
#15=MANIFOLD_SOLID_BREP('323',#360);
#16=FACE_OUTER_BOUND('',#34,.T.);
#17=FACE_OUTER_BOUND('',#35,.T.);
#18=FACE_OUTER_BOUND('',#36,.T.);
#19=FACE_OUTER_BOUND('',#37,.T.);
#20=FACE_OUTER_BOUND('',#38,.T.);
#21=FACE_OUTER_BOUND('',#39,.T.);
#22=FACE_OUTER_BOUND('',#40,.T.);
#23=FACE_OUTER_BOUND('',#41,.T.);
#24=FACE_OUTER_BOUND('',#42,.T.);
#25=FACE_OUTER_BOUND('',#43,.T.);
#26=FACE_OUTER_BOUND('',#44,.T.);
#27=FACE_OUTER_BOUND('',#45,.T.);
#28=FACE_OUTER_BOUND('',#46,.T.);
#29=FACE_OUTER_BOUND('',#47,.T.);
#30=FACE_OUTER_BOUND('',#48,.T.);
#31=FACE_OUTER_BOUND('',#49,.T.);
#32=FACE_OUTER_BOUND('',#50,.T.);
#33=FACE_OUTER_BOUND('',#51,.T.);
#34=EDGE_LOOP('',(#228,#229,#230,#231));
#35=EDGE_LOOP('',(#232,#233,#234,#235));
#36=EDGE_LOOP('',(#236,#237,#238,#239));
#37=EDGE_LOOP('',(#240,#241,#242,#243));
#38=EDGE_LOOP('',(#244,#245,#246,#247));
#39=EDGE_LOOP('',(#248,#249,#250,#251));
#40=EDGE_LOOP('',(#252,#253,#254,#255));
#41=EDGE_LOOP('',(#256,#257,#258,#259));
#42=EDGE_LOOP('',(#260,#261,#262,#263));
#43=EDGE_LOOP('',(#264,#265,#266,#267));
#44=EDGE_LOOP('',(#268,#269,#270,#271));
#45=EDGE_LOOP('',(#272,#273,#274,#275));
#46=EDGE_LOOP('',(#276,#277,#278,#279));
#47=EDGE_LOOP('',(#280,#281,#282,#283));
#48=EDGE_LOOP('',(#284,#285,#286,#287));
#49=EDGE_LOOP('',(#288,#289,#290,#291));
#50=EDGE_LOOP('',(#292,#293,#294,#295,#296,#297,#298,#299,#300,#301,#302,
#303,#304,#305,#306,#307));
#51=EDGE_LOOP('',(#308,#309,#310,#311,#312,#313,#314,#315,#316,#317,#318,
#319,#320,#321,#322,#323));
#52=LINE('',#470,#100);
#53=LINE('',#472,#101);
#54=LINE('',#474,#102);
#55=LINE('',#475,#103);
#56=LINE('',#478,#104);
#57=LINE('',#480,#105);
#58=LINE('',#481,#106);
#59=LINE('',#484,#107);
#60=LINE('',#486,#108);
#61=LINE('',#487,#109);
#62=LINE('',#490,#110);
#63=LINE('',#492,#111);
#64=LINE('',#493,#112);
#65=LINE('',#496,#113);
#66=LINE('',#498,#114);
#67=LINE('',#499,#115);
#68=LINE('',#502,#116);
#69=LINE('',#504,#117);
#70=LINE('',#505,#118);
#71=LINE('',#508,#119);
#72=LINE('',#510,#120);
#73=LINE('',#511,#121);
#74=LINE('',#514,#122);
#75=LINE('',#516,#123);
#76=LINE('',#517,#124);
#77=LINE('',#520,#125);
#78=LINE('',#522,#126);
#79=LINE('',#523,#127);
#80=LINE('',#526,#128);
#81=LINE('',#528,#129);
#82=LINE('',#529,#130);
#83=LINE('',#532,#131);
#84=LINE('',#534,#132);
#85=LINE('',#535,#133);
#86=LINE('',#538,#134);
#87=LINE('',#540,#135);
#88=LINE('',#541,#136);
#89=LINE('',#544,#137);
#90=LINE('',#546,#138);
#91=LINE('',#547,#139);
#92=LINE('',#550,#140);
#93=LINE('',#552,#141);
#94=LINE('',#553,#142);
#95=LINE('',#556,#143);
#96=LINE('',#558,#144);
#97=LINE('',#559,#145);
#98=LINE('',#561,#146);
#99=LINE('',#562,#147);
#100=VECTOR('',#384,10.);
#101=VECTOR('',#385,10.);
#102=VECTOR('',#386,10.);
#103=VECTOR('',#387,10.);
#104=VECTOR('',#390,10.);
#105=VECTOR('',#391,10.);
#106=VECTOR('',#392,10.);
#107=VECTOR('',#395,10.);
#108=VECTOR('',#396,10.);
#109=VECTOR('',#397,10.);
#110=VECTOR('',#400,10.);
#111=VECTOR('',#401,10.);
#112=VECTOR('',#402,10.);
#113=VECTOR('',#405,10.);
#114=VECTOR('',#406,10.);
#115=VECTOR('',#407,10.);
#116=VECTOR('',#410,10.);
#117=VECTOR('',#411,10.);
#118=VECTOR('',#412,10.);
#119=VECTOR('',#415,10.);
#120=VECTOR('',#416,10.);
#121=VECTOR('',#417,10.);
#122=VECTOR('',#420,10.);
#123=VECTOR('',#421,10.);
#124=VECTOR('',#422,10.);
#125=VECTOR('',#425,10.);
#126=VECTOR('',#426,10.);
#127=VECTOR('',#427,10.);
#128=VECTOR('',#430,10.);
#129=VECTOR('',#431,10.);
#130=VECTOR('',#432,10.);
#131=VECTOR('',#435,10.);
#132=VECTOR('',#436,10.);
#133=VECTOR('',#437,10.);
#134=VECTOR('',#440,10.);
#135=VECTOR('',#441,10.);
#136=VECTOR('',#442,10.);
#137=VECTOR('',#445,10.);
#138=VECTOR('',#446,10.);
#139=VECTOR('',#447,10.);
#140=VECTOR('',#450,10.);
#141=VECTOR('',#451,10.);
#142=VECTOR('',#452,10.);
#143=VECTOR('',#455,10.);
#144=VECTOR('',#456,10.);
#145=VECTOR('',#457,10.);
#146=VECTOR('',#460,10.);
#147=VECTOR('',#461,10.);
#148=VERTEX_POINT('',#468);
#149=VERTEX_POINT('',#469);
#150=VERTEX_POINT('',#471);
#151=VERTEX_POINT('',#473);
#152=VERTEX_POINT('',#477);
#153=VERTEX_POINT('',#479);
#154=VERTEX_POINT('',#483);
#155=VERTEX_POINT('',#485);
#156=VERTEX_POINT('',#489);
#157=VERTEX_POINT('',#491);
#158=VERTEX_POINT('',#495);
#159=VERTEX_POINT('',#497);
#160=VERTEX_POINT('',#501);
#161=VERTEX_POINT('',#503);
#162=VERTEX_POINT('',#507);
#163=VERTEX_POINT('',#509);
#164=VERTEX_POINT('',#513);
#165=VERTEX_POINT('',#515);
#166=VERTEX_POINT('',#519);
#167=VERTEX_POINT('',#521);
#168=VERTEX_POINT('',#525);
#169=VERTEX_POINT('',#527);
#170=VERTEX_POINT('',#531);
#171=VERTEX_POINT('',#533);
#172=VERTEX_POINT('',#537);
#173=VERTEX_POINT('',#539);
#174=VERTEX_POINT('',#543);
#175=VERTEX_POINT('',#545);
#176=VERTEX_POINT('',#549);
#177=VERTEX_POINT('',#551);
#178=VERTEX_POINT('',#555);
#179=VERTEX_POINT('',#557);
#180=EDGE_CURVE('',#148,#149,#52,.T.);
#181=EDGE_CURVE('',#148,#150,#53,.T.);
#182=EDGE_CURVE('',#151,#150,#54,.T.);
#183=EDGE_CURVE('',#149,#151,#55,.T.);
#184=EDGE_CURVE('',#149,#152,#56,.T.);
#185=EDGE_CURVE('',#153,#151,#57,.T.);
#186=EDGE_CURVE('',#152,#153,#58,.T.);
#187=EDGE_CURVE('',#152,#154,#59,.T.);
#188=EDGE_CURVE('',#155,#153,#60,.T.);
#189=EDGE_CURVE('',#154,#155,#61,.T.);
#190=EDGE_CURVE('',#154,#156,#62,.T.);
#191=EDGE_CURVE('',#157,#155,#63,.T.);
#192=EDGE_CURVE('',#156,#157,#64,.T.);
#193=EDGE_CURVE('',#156,#158,#65,.T.);
#194=EDGE_CURVE('',#159,#157,#66,.T.);
#195=EDGE_CURVE('',#158,#159,#67,.T.);
#196=EDGE_CURVE('',#158,#160,#68,.T.);
#197=EDGE_CURVE('',#161,#159,#69,.T.);
#198=EDGE_CURVE('',#160,#161,#70,.T.);
#199=EDGE_CURVE('',#160,#162,#71,.T.);
#200=EDGE_CURVE('',#163,#161,#72,.T.);
#201=EDGE_CURVE('',#162,#163,#73,.T.);
#202=EDGE_CURVE('',#162,#164,#74,.T.);
#203=EDGE_CURVE('',#165,#163,#75,.T.);
#204=EDGE_CURVE('',#164,#165,#76,.T.);
#205=EDGE_CURVE('',#164,#166,#77,.T.);
#206=EDGE_CURVE('',#167,#165,#78,.T.);
#207=EDGE_CURVE('',#166,#167,#79,.T.);
#208=EDGE_CURVE('',#166,#168,#80,.T.);
#209=EDGE_CURVE('',#169,#167,#81,.T.);
#210=EDGE_CURVE('',#168,#169,#82,.T.);
#211=EDGE_CURVE('',#168,#170,#83,.T.);
#212=EDGE_CURVE('',#171,#169,#84,.T.);
#213=EDGE_CURVE('',#170,#171,#85,.T.);
#214=EDGE_CURVE('',#170,#172,#86,.T.);
#215=EDGE_CURVE('',#173,#171,#87,.T.);
#216=EDGE_CURVE('',#172,#173,#88,.T.);
#217=EDGE_CURVE('',#172,#174,#89,.T.);
#218=EDGE_CURVE('',#175,#173,#90,.T.);
#219=EDGE_CURVE('',#174,#175,#91,.T.);
#220=EDGE_CURVE('',#174,#176,#92,.T.);
#221=EDGE_CURVE('',#177,#175,#93,.T.);
#222=EDGE_CURVE('',#176,#177,#94,.T.);
#223=EDGE_CURVE('',#176,#178,#95,.T.);
#224=EDGE_CURVE('',#179,#177,#96,.T.);
#225=EDGE_CURVE('',#178,#179,#97,.T.);
#226=EDGE_CURVE('',#178,#148,#98,.T.);
#227=EDGE_CURVE('',#150,#179,#99,.T.);
#228=ORIENTED_EDGE('',*,*,#180,.F.);
#229=ORIENTED_EDGE('',*,*,#181,.T.);
#230=ORIENTED_EDGE('',*,*,#182,.F.);
#231=ORIENTED_EDGE('',*,*,#183,.F.);
#232=ORIENTED_EDGE('',*,*,#184,.F.);
#233=ORIENTED_EDGE('',*,*,#183,.T.);
#234=ORIENTED_EDGE('',*,*,#185,.F.);
#235=ORIENTED_EDGE('',*,*,#186,.F.);
#236=ORIENTED_EDGE('',*,*,#187,.F.);
#237=ORIENTED_EDGE('',*,*,#186,.T.);
#238=ORIENTED_EDGE('',*,*,#188,.F.);
#239=ORIENTED_EDGE('',*,*,#189,.F.);
#240=ORIENTED_EDGE('',*,*,#190,.F.);
#241=ORIENTED_EDGE('',*,*,#189,.T.);
#242=ORIENTED_EDGE('',*,*,#191,.F.);
#243=ORIENTED_EDGE('',*,*,#192,.F.);
#244=ORIENTED_EDGE('',*,*,#193,.F.);
#245=ORIENTED_EDGE('',*,*,#192,.T.);
#246=ORIENTED_EDGE('',*,*,#194,.F.);
#247=ORIENTED_EDGE('',*,*,#195,.F.);
#248=ORIENTED_EDGE('',*,*,#196,.F.);
#249=ORIENTED_EDGE('',*,*,#195,.T.);
#250=ORIENTED_EDGE('',*,*,#197,.F.);
#251=ORIENTED_EDGE('',*,*,#198,.F.);
#252=ORIENTED_EDGE('',*,*,#199,.F.);
#253=ORIENTED_EDGE('',*,*,#198,.T.);
#254=ORIENTED_EDGE('',*,*,#200,.F.);
#255=ORIENTED_EDGE('',*,*,#201,.F.);
#256=ORIENTED_EDGE('',*,*,#202,.F.);
#257=ORIENTED_EDGE('',*,*,#201,.T.);
#258=ORIENTED_EDGE('',*,*,#203,.F.);
#259=ORIENTED_EDGE('',*,*,#204,.F.);
#260=ORIENTED_EDGE('',*,*,#205,.F.);
#261=ORIENTED_EDGE('',*,*,#204,.T.);
#262=ORIENTED_EDGE('',*,*,#206,.F.);
#263=ORIENTED_EDGE('',*,*,#207,.F.);
#264=ORIENTED_EDGE('',*,*,#208,.F.);
#265=ORIENTED_EDGE('',*,*,#207,.T.);
#266=ORIENTED_EDGE('',*,*,#209,.F.);
#267=ORIENTED_EDGE('',*,*,#210,.F.);
#268=ORIENTED_EDGE('',*,*,#211,.F.);
#269=ORIENTED_EDGE('',*,*,#210,.T.);
#270=ORIENTED_EDGE('',*,*,#212,.F.);
#271=ORIENTED_EDGE('',*,*,#213,.F.);
#272=ORIENTED_EDGE('',*,*,#214,.F.);
#273=ORIENTED_EDGE('',*,*,#213,.T.);
#274=ORIENTED_EDGE('',*,*,#215,.F.);
#275=ORIENTED_EDGE('',*,*,#216,.F.);
#276=ORIENTED_EDGE('',*,*,#217,.F.);
#277=ORIENTED_EDGE('',*,*,#216,.T.);
#278=ORIENTED_EDGE('',*,*,#218,.F.);
#279=ORIENTED_EDGE('',*,*,#219,.F.);
#280=ORIENTED_EDGE('',*,*,#220,.F.);
#281=ORIENTED_EDGE('',*,*,#219,.T.);
#282=ORIENTED_EDGE('',*,*,#221,.F.);
#283=ORIENTED_EDGE('',*,*,#222,.F.);
#284=ORIENTED_EDGE('',*,*,#223,.F.);
#285=ORIENTED_EDGE('',*,*,#222,.T.);
#286=ORIENTED_EDGE('',*,*,#224,.F.);
#287=ORIENTED_EDGE('',*,*,#225,.F.);
#288=ORIENTED_EDGE('',*,*,#226,.F.);
#289=ORIENTED_EDGE('',*,*,#225,.T.);
#290=ORIENTED_EDGE('',*,*,#227,.F.);
#291=ORIENTED_EDGE('',*,*,#181,.F.);
#292=ORIENTED_EDGE('',*,*,#226,.T.);
#293=ORIENTED_EDGE('',*,*,#180,.T.);
#294=ORIENTED_EDGE('',*,*,#184,.T.);
#295=ORIENTED_EDGE('',*,*,#187,.T.);
#296=ORIENTED_EDGE('',*,*,#190,.T.);
#297=ORIENTED_EDGE('',*,*,#193,.T.);
#298=ORIENTED_EDGE('',*,*,#196,.T.);
#299=ORIENTED_EDGE('',*,*,#199,.T.);
#300=ORIENTED_EDGE('',*,*,#202,.T.);
#301=ORIENTED_EDGE('',*,*,#205,.T.);
#302=ORIENTED_EDGE('',*,*,#208,.T.);
#303=ORIENTED_EDGE('',*,*,#211,.T.);
#304=ORIENTED_EDGE('',*,*,#214,.T.);
#305=ORIENTED_EDGE('',*,*,#217,.T.);
#306=ORIENTED_EDGE('',*,*,#220,.T.);
#307=ORIENTED_EDGE('',*,*,#223,.T.);
#308=ORIENTED_EDGE('',*,*,#227,.T.);
#309=ORIENTED_EDGE('',*,*,#224,.T.);
#310=ORIENTED_EDGE('',*,*,#221,.T.);
#311=ORIENTED_EDGE('',*,*,#218,.T.);
#312=ORIENTED_EDGE('',*,*,#215,.T.);
#313=ORIENTED_EDGE('',*,*,#212,.T.);
#314=ORIENTED_EDGE('',*,*,#209,.T.);
#315=ORIENTED_EDGE('',*,*,#206,.T.);
#316=ORIENTED_EDGE('',*,*,#203,.T.);
#317=ORIENTED_EDGE('',*,*,#200,.T.);
#318=ORIENTED_EDGE('',*,*,#197,.T.);
#319=ORIENTED_EDGE('',*,*,#194,.T.);
#320=ORIENTED_EDGE('',*,*,#191,.T.);
#321=ORIENTED_EDGE('',*,*,#188,.T.);
#322=ORIENTED_EDGE('',*,*,#185,.T.);
#323=ORIENTED_EDGE('',*,*,#182,.T.);
#324=PLANE('',#362);
#325=PLANE('',#363);
#326=PLANE('',#364);
#327=PLANE('',#365);
#328=PLANE('',#366);
#329=PLANE('',#367);
#330=PLANE('',#368);
#331=PLANE('',#369);
#332=PLANE('',#370);
#333=PLANE('',#371);
#334=PLANE('',#372);
#335=PLANE('',#373);
#336=PLANE('',#374);
#337=PLANE('',#375);
#338=PLANE('',#376);
#339=PLANE('',#377);
#340=PLANE('',#378);
#341=PLANE('',#379);
#342=ADVANCED_FACE('',(#16),#324,.T.);
#343=ADVANCED_FACE('',(#17),#325,.T.);
#344=ADVANCED_FACE('',(#18),#326,.T.);
#345=ADVANCED_FACE('',(#19),#327,.T.);
#346=ADVANCED_FACE('',(#20),#328,.T.);
#347=ADVANCED_FACE('',(#21),#329,.T.);
#348=ADVANCED_FACE('',(#22),#330,.T.);
#349=ADVANCED_FACE('',(#23),#331,.T.);
#350=ADVANCED_FACE('',(#24),#332,.T.);
#351=ADVANCED_FACE('',(#25),#333,.T.);
#352=ADVANCED_FACE('',(#26),#334,.T.);
#353=ADVANCED_FACE('',(#27),#335,.T.);
#354=ADVANCED_FACE('',(#28),#336,.T.);
#355=ADVANCED_FACE('',(#29),#337,.T.);
#356=ADVANCED_FACE('',(#30),#338,.T.);
#357=ADVANCED_FACE('',(#31),#339,.T.);
#358=ADVANCED_FACE('',(#32),#340,.F.);
#359=ADVANCED_FACE('',(#33),#341,.T.);
#360=CLOSED_SHELL('',(#342,#343,#344,#345,#346,#347,#348,#349,#350,#351,
#352,#353,#354,#355,#356,#357,#358,#359));
#361=AXIS2_PLACEMENT_3D('placement',#466,#380,#381);
#362=AXIS2_PLACEMENT_3D('',#467,#382,#383);
#363=AXIS2_PLACEMENT_3D('',#476,#388,#389);
#364=AXIS2_PLACEMENT_3D('',#482,#393,#394);
#365=AXIS2_PLACEMENT_3D('',#488,#398,#399);
#366=AXIS2_PLACEMENT_3D('',#494,#403,#404);
#367=AXIS2_PLACEMENT_3D('',#500,#408,#409);
#368=AXIS2_PLACEMENT_3D('',#506,#413,#414);
#369=AXIS2_PLACEMENT_3D('',#512,#418,#419);
#370=AXIS2_PLACEMENT_3D('',#518,#423,#424);
#371=AXIS2_PLACEMENT_3D('',#524,#428,#429);
#372=AXIS2_PLACEMENT_3D('',#530,#433,#434);
#373=AXIS2_PLACEMENT_3D('',#536,#438,#439);
#374=AXIS2_PLACEMENT_3D('',#542,#443,#444);
#375=AXIS2_PLACEMENT_3D('',#548,#448,#449);
#376=AXIS2_PLACEMENT_3D('',#554,#453,#454);
#377=AXIS2_PLACEMENT_3D('',#560,#458,#459);
#378=AXIS2_PLACEMENT_3D('',#563,#462,#463);
#379=AXIS2_PLACEMENT_3D('',#564,#464,#465);
#380=DIRECTION('axis',(0.,0.,1.));
#381=DIRECTION('refdir',(1.,0.,0.));
#382=DIRECTION('center_axis',(6.12323399573677E-17,1.,0.));
#383=DIRECTION('ref_axis',(-6.12323399573677E-17,3.74939945665464E-33,1.));
#384=DIRECTION('',(6.12323399573677E-17,-3.74939945665464E-33,-1.));
#385=DIRECTION('',(1.,-6.12323399573677E-17,6.12323399573677E-17));
#386=DIRECTION('',(-6.12323399573677E-17,3.74939945665464E-33,1.));
#387=DIRECTION('',(1.,-6.12323399573677E-17,6.12323399573677E-17));
#388=DIRECTION('center_axis',(6.12323399573677E-17,-3.74939945665464E-33,
-1.));
#389=DIRECTION('ref_axis',(6.12323399573677E-17,1.,0.));
#390=DIRECTION('',(-6.12323399573677E-17,-1.,0.));
#391=DIRECTION('',(6.12323399573677E-17,1.,0.));
#392=DIRECTION('',(1.,-6.12323399573677E-17,6.12323399573677E-17));
#393=DIRECTION('center_axis',(6.12323399573677E-17,1.,0.));
#394=DIRECTION('ref_axis',(-6.12323399573677E-17,3.74939945665464E-33,1.));
#395=DIRECTION('',(6.12323399573677E-17,-3.74939945665464E-33,-1.));
#396=DIRECTION('',(-6.12323399573677E-17,3.74939945665464E-33,1.));
#397=DIRECTION('',(1.,-6.12323399573677E-17,6.12323399573677E-17));
#398=DIRECTION('center_axis',(-6.12323399573677E-17,-2.52323414687535E-16,
1.));
#399=DIRECTION('ref_axis',(-6.12323399573676E-17,-1.,-2.52323414687535E-16));
#400=DIRECTION('',(6.12323399573676E-17,1.,2.52323414687535E-16));
#401=DIRECTION('',(-6.12323399573676E-17,-1.,-2.52323414687535E-16));
#402=DIRECTION('',(1.,-6.12323399573677E-17,6.12323399573677E-17));
#403=DIRECTION('center_axis',(8.36687925269263E-17,0.865491545647073,-0.500923531503005));
#404=DIRECTION('ref_axis',(-2.2323352579652E-17,0.500923531503005,0.865491545647073));
#405=DIRECTION('',(2.2323352579652E-17,-0.500923531503004,-0.865491545647072));
#406=DIRECTION('',(-2.2323352579652E-17,0.500923531503005,0.865491545647073));
#407=DIRECTION('',(1.,-6.12323399573677E-17,6.12323399573677E-17));
#408=DIRECTION('center_axis',(6.12323399573677E-17,4.36581068667235E-32,
-1.));
#409=DIRECTION('ref_axis',(6.12323399573677E-17,1.,4.74075063233781E-32));
#410=DIRECTION('',(-6.12323399573677E-17,-1.,-4.74075063233781E-32));
#411=DIRECTION('',(6.12323399573677E-17,1.,4.74075063233781E-32));
#412=DIRECTION('',(1.,-6.12323399573677E-17,6.12323399573677E-17));
#413=DIRECTION('center_axis',(-6.12323399573677E-17,-1.,0.));
#414=DIRECTION('ref_axis',(6.12323399573677E-17,-3.74939945665464E-33,-1.));
#415=DIRECTION('',(-6.12323399573677E-17,3.74939945665464E-33,1.));
#416=DIRECTION('',(6.12323399573677E-17,-3.74939945665464E-33,-1.));
#417=DIRECTION('',(1.,-6.12323399573677E-17,6.12323399573677E-17));
#418=DIRECTION('center_axis',(6.12323399573677E-17,-3.74939945665464E-33,
-1.));
#419=DIRECTION('ref_axis',(6.12323399573677E-17,1.,0.));
#420=DIRECTION('',(-6.12323399573677E-17,-1.,0.));
#421=DIRECTION('',(6.12323399573677E-17,1.,0.));
#422=DIRECTION('',(1.,-6.12323399573677E-17,6.12323399573677E-17));
#423=DIRECTION('center_axis',(6.12323399573677E-17,1.,0.));
#424=DIRECTION('ref_axis',(-6.12323399573677E-17,3.74939945665464E-33,1.));
#425=DIRECTION('',(6.12323399573677E-17,-3.74939945665464E-33,-1.));
#426=DIRECTION('',(-6.12323399573677E-17,3.74939945665464E-33,1.));
#427=DIRECTION('',(1.,-6.12323399573677E-17,6.12323399573677E-17));
#428=DIRECTION('center_axis',(6.12323399573677E-17,-3.74939945665464E-33,
-1.));
#429=DIRECTION('ref_axis',(6.12323399573677E-17,1.,0.));
#430=DIRECTION('',(-6.12323399573677E-17,-1.,0.));
#431=DIRECTION('',(6.12323399573677E-17,1.,0.));
#432=DIRECTION('',(1.,-6.12323399573677E-17,6.12323399573677E-17));
#433=DIRECTION('center_axis',(-2.23233525796519E-17,-0.865491545647072,
-0.500923531503005));
#434=DIRECTION('ref_axis',(8.36687925269263E-17,0.500923531503005,-0.865491545647072));
#435=DIRECTION('',(-8.36687925269263E-17,-0.500923531503005,0.865491545647072));
#436=DIRECTION('',(8.36687925269263E-17,0.500923531503005,-0.865491545647072));
#437=DIRECTION('',(1.,-6.12323399573677E-17,6.12323399573677E-17));
#438=DIRECTION('center_axis',(-6.12323399573677E-17,3.74939945665464E-33,
1.));
#439=DIRECTION('ref_axis',(-6.12323399573677E-17,-1.,0.));
#440=DIRECTION('',(6.12323399573677E-17,1.,0.));
#441=DIRECTION('',(-6.12323399573677E-17,-1.,0.));
#442=DIRECTION('',(1.,-6.12323399573677E-17,6.12323399573677E-17));
#443=DIRECTION('center_axis',(-6.12323399573677E-17,-1.,0.));
#444=DIRECTION('ref_axis',(6.12323399573677E-17,-3.74939945665464E-33,-1.));
#445=DIRECTION('',(-6.12323399573677E-17,3.74939945665464E-33,1.));
#446=DIRECTION('',(6.12323399573677E-17,-3.74939945665464E-33,-1.));
#447=DIRECTION('',(1.,-6.12323399573677E-17,6.12323399573677E-17));
#448=DIRECTION('center_axis',(6.12323399573677E-17,-3.74939945665464E-33,
-1.));
#449=DIRECTION('ref_axis',(6.12323399573677E-17,1.,0.));
#450=DIRECTION('',(-6.12323399573677E-17,-1.,0.));
#451=DIRECTION('',(6.12323399573677E-17,1.,0.));
#452=DIRECTION('',(1.,-6.12323399573677E-17,6.12323399573677E-17));
#453=DIRECTION('center_axis',(-6.12323399573677E-17,-1.,0.));
#454=DIRECTION('ref_axis',(6.12323399573677E-17,-3.74939945665464E-33,-1.));
#455=DIRECTION('',(-6.12323399573677E-17,3.74939945665464E-33,1.));
#456=DIRECTION('',(6.12323399573677E-17,-3.74939945665464E-33,-1.));
#457=DIRECTION('',(1.,-6.12323399573677E-17,6.12323399573677E-17));
#458=DIRECTION('center_axis',(-6.12323399573677E-17,3.74939945665464E-33,
1.));
#459=DIRECTION('ref_axis',(-6.12323399573677E-17,-1.,0.));
#460=DIRECTION('',(6.12323399573677E-17,1.,0.));
#461=DIRECTION('',(-6.12323399573677E-17,-1.,0.));
#462=DIRECTION('center_axis',(1.,-6.12323399573677E-17,6.12323399573677E-17));
#463=DIRECTION('ref_axis',(6.12323399573677E-17,1.,0.));
#464=DIRECTION('center_axis',(1.,-6.12323399573677E-17,6.12323399573677E-17));
#465=DIRECTION('ref_axis',(6.12323399573677E-17,1.,0.));
#466=CARTESIAN_POINT('',(0.,0.,0.));
#467=CARTESIAN_POINT('Origin',(1.22464679914735E-16,5.,3.));
#468=CARTESIAN_POINT('',(6.12323399573677E-17,5.,4.));
#469=CARTESIAN_POINT('',(1.22464679914735E-16,5.,3.));
#470=CARTESIAN_POINT('',(6.12323399573677E-17,5.,4.));
#471=CARTESIAN_POINT('',(6.,5.,4.));
#472=CARTESIAN_POINT('',(6.12323399573677E-17,5.,4.));
#473=CARTESIAN_POINT('',(6.,5.,3.));
#474=CARTESIAN_POINT('',(6.,5.,4.));
#475=CARTESIAN_POINT('',(1.22464679914735E-16,5.,3.));
#476=CARTESIAN_POINT('Origin',(-2.14313189850787E-17,2.65,3.));
#477=CARTESIAN_POINT('',(-2.14313189850787E-17,2.65,3.));
#478=CARTESIAN_POINT('',(1.22464679914735E-16,5.,3.));
#479=CARTESIAN_POINT('',(6.,2.65,3.));
#480=CARTESIAN_POINT('',(6.,5.,3.));
#481=CARTESIAN_POINT('',(-2.14313189850787E-17,2.65,3.));
#482=CARTESIAN_POINT('Origin',(1.0407749835469E-16,2.65,0.950285463087763));
#483=CARTESIAN_POINT('',(1.0407749835469E-16,2.65,0.950285463087763));
#484=CARTESIAN_POINT('',(-2.14313189850787E-17,2.65,3.));
#485=CARTESIAN_POINT('',(6.,2.65,0.950285463087763));
#486=CARTESIAN_POINT('',(6.,2.65,3.));
#487=CARTESIAN_POINT('',(1.0407749835469E-16,2.65,0.950285463087763));
#488=CARTESIAN_POINT('Origin',(1.37755285331242E-16,3.2,0.950285463087763));
#489=CARTESIAN_POINT('',(1.37755285331242E-16,3.2,0.950285463087763));
#490=CARTESIAN_POINT('',(1.0407749835469E-16,2.65,0.950285463087763));
#491=CARTESIAN_POINT('',(6.,3.2,0.950285463087763));
#492=CARTESIAN_POINT('',(6.,2.65,0.950285463087763));
#493=CARTESIAN_POINT('',(1.37755285331242E-16,3.2,0.950285463087763));
#494=CARTESIAN_POINT('Origin',(1.62265700887024E-16,2.65,-1.38777878078145E-16));
#495=CARTESIAN_POINT('',(1.62265700887024E-16,2.65,-6.16297582203915E-32));
#496=CARTESIAN_POINT('',(1.37755285331242E-16,3.2,0.950285463087763));
#497=CARTESIAN_POINT('',(6.,2.65,3.67394039744206E-16));
#498=CARTESIAN_POINT('',(6.,3.2,0.950285463087763));
#499=CARTESIAN_POINT('',(1.62265700887024E-16,2.65,-6.16297582203915E-32));
#500=CARTESIAN_POINT('Origin',(1.22464679914735E-16,2.,-9.24446373305873E-32));
#501=CARTESIAN_POINT('',(1.22464679914735E-16,2.,-9.24446373305873E-32));
#502=CARTESIAN_POINT('',(1.62265700887024E-16,2.65,-6.16297582203915E-32));
#503=CARTESIAN_POINT('',(6.,2.,3.67394039744206E-16));
#504=CARTESIAN_POINT('',(6.,2.65,3.67394039744206E-16));
#505=CARTESIAN_POINT('',(1.22464679914735E-16,2.,-9.24446373305873E-32));
#506=CARTESIAN_POINT('Origin',(-6.12323399573677E-17,2.,3.));
#507=CARTESIAN_POINT('',(-6.12323399573677E-17,2.,3.));
#508=CARTESIAN_POINT('',(1.22464679914735E-16,2.,-9.24446373305873E-32));
#509=CARTESIAN_POINT('',(6.,2.,3.));
#510=CARTESIAN_POINT('',(6.,2.,3.67394039744206E-16));
#511=CARTESIAN_POINT('',(-6.12323399573677E-17,2.,3.));
#512=CARTESIAN_POINT('Origin',(-3.06161699786838E-16,-2.,3.));
#513=CARTESIAN_POINT('',(-3.06161699786838E-16,-2.,3.));
#514=CARTESIAN_POINT('',(-6.12323399573677E-17,2.,3.));
#515=CARTESIAN_POINT('',(6.,-2.,3.));
#516=CARTESIAN_POINT('',(6.,2.,3.));
#517=CARTESIAN_POINT('',(-3.06161699786838E-16,-2.,3.));
#518=CARTESIAN_POINT('Origin',(-1.22464679914735E-16,-2.,0.));
#519=CARTESIAN_POINT('',(-1.22464679914735E-16,-2.,0.));
#520=CARTESIAN_POINT('',(-3.06161699786838E-16,-2.,3.));
#521=CARTESIAN_POINT('',(6.,-2.,3.67394039744206E-16));
#522=CARTESIAN_POINT('',(6.,-2.,3.));
#523=CARTESIAN_POINT('',(-1.22464679914735E-16,-2.,0.));
#524=CARTESIAN_POINT('Origin',(-1.62265700887024E-16,-2.65,0.));
#525=CARTESIAN_POINT('',(-1.62265700887024E-16,-2.65,0.));
#526=CARTESIAN_POINT('',(-1.22464679914735E-16,-2.,0.));
#527=CARTESIAN_POINT('',(6.,-2.65,3.67394039744206E-16));
#528=CARTESIAN_POINT('',(6.,-2.,3.67394039744206E-16));
#529=CARTESIAN_POINT('',(-1.62265700887024E-16,-2.65,0.));
#530=CARTESIAN_POINT('Origin',(-2.54131690395911E-16,-3.2,0.950285463087763));
#531=CARTESIAN_POINT('',(-2.54131690395911E-16,-3.2,0.950285463087763));
#532=CARTESIAN_POINT('',(-1.62265700887024E-16,-2.65,0.));
#533=CARTESIAN_POINT('',(6.,-3.2,0.950285463087763));
#534=CARTESIAN_POINT('',(6.,-2.65,3.67394039744206E-16));
#535=CARTESIAN_POINT('',(-2.54131690395911E-16,-3.2,0.950285463087763));
#536=CARTESIAN_POINT('Origin',(-2.20453903419359E-16,-2.65,0.950285463087763));
#537=CARTESIAN_POINT('',(-2.20453903419359E-16,-2.65,0.950285463087763));
#538=CARTESIAN_POINT('',(-2.54131690395911E-16,-3.2,0.950285463087763));
#539=CARTESIAN_POINT('',(6.,-2.65,0.950285463087763));
#540=CARTESIAN_POINT('',(6.,-3.2,0.950285463087763));
#541=CARTESIAN_POINT('',(-2.20453903419359E-16,-2.65,0.950285463087763));
#542=CARTESIAN_POINT('Origin',(-3.45962720759127E-16,-2.65,3.));
#543=CARTESIAN_POINT('',(-3.45962720759127E-16,-2.65,3.));
#544=CARTESIAN_POINT('',(-2.20453903419359E-16,-2.65,0.950285463087763));
#545=CARTESIAN_POINT('',(6.,-2.65,3.));
#546=CARTESIAN_POINT('',(6.,-2.65,0.950285463087763));
#547=CARTESIAN_POINT('',(-3.45962720759127E-16,-2.65,3.));
#548=CARTESIAN_POINT('Origin',(-4.89858719658941E-16,-5.,3.));
#549=CARTESIAN_POINT('',(-4.89858719658941E-16,-5.,3.));
#550=CARTESIAN_POINT('',(-3.45962720759127E-16,-2.65,3.));
#551=CARTESIAN_POINT('',(6.,-5.,3.));
#552=CARTESIAN_POINT('',(6.,-2.65,3.));
#553=CARTESIAN_POINT('',(-4.89858719658941E-16,-5.,3.));
#554=CARTESIAN_POINT('Origin',(-5.51091059616309E-16,-5.,4.));
#555=CARTESIAN_POINT('',(-5.51091059616309E-16,-5.,4.));
#556=CARTESIAN_POINT('',(-4.89858719658941E-16,-5.,3.));
#557=CARTESIAN_POINT('',(6.,-5.,4.));
#558=CARTESIAN_POINT('',(6.,-5.,3.));
#559=CARTESIAN_POINT('',(-5.51091059616309E-16,-5.,4.));
#560=CARTESIAN_POINT('Origin',(6.12323399573677E-17,5.,4.));
#561=CARTESIAN_POINT('',(-5.51091059616309E-16,-5.,4.));
#562=CARTESIAN_POINT('',(6.,-5.,4.));
#563=CARTESIAN_POINT('Origin',(-1.59649872918473E-16,-8.82178089881315E-17,
2.60728028733881));
#564=CARTESIAN_POINT('Origin',(6.,-3.67394039744206E-16,2.60728028733881));
#565=UNCERTAINTY_MEASURE_WITH_UNIT(LENGTH_MEASURE(0.01),#569,
'DISTANCE_ACCURACY_VALUE',
'Maximum model space distance between geometric entities at asserted c
onnectivities');
#566=UNCERTAINTY_MEASURE_WITH_UNIT(LENGTH_MEASURE(0.01),#569,
'DISTANCE_ACCURACY_VALUE',
'Maximum model space distance between geometric entities at asserted c
onnectivities');
#567=(
GEOMETRIC_REPRESENTATION_CONTEXT(3)
GLOBAL_UNCERTAINTY_ASSIGNED_CONTEXT((#565))
GLOBAL_UNIT_ASSIGNED_CONTEXT((#569,#571,#570))
REPRESENTATION_CONTEXT('','3D')
);
#568=(
GEOMETRIC_REPRESENTATION_CONTEXT(3)
GLOBAL_UNCERTAINTY_ASSIGNED_CONTEXT((#566))
GLOBAL_UNIT_ASSIGNED_CONTEXT((#569,#571,#570))
REPRESENTATION_CONTEXT('','3D')
);
#569=(
LENGTH_UNIT()
NAMED_UNIT(*)
SI_UNIT(.MILLI.,.METRE.)
);
#570=(
NAMED_UNIT(*)
SI_UNIT($,.STERADIAN.)
SOLID_ANGLE_UNIT()
);
#571=(
NAMED_UNIT(*)
PLANE_ANGLE_UNIT()
SI_UNIT($,.RADIAN.)
);
#572=SHAPE_DEFINITION_REPRESENTATION(#573,#574);
#573=PRODUCT_DEFINITION_SHAPE('',$,#576);
#574=SHAPE_REPRESENTATION('',(#361),#567);
#575=PRODUCT_DEFINITION_CONTEXT('part definition',#580,'design');
#576=PRODUCT_DEFINITION('Product','Product',#577,#575);
#577=PRODUCT_DEFINITION_FORMATION('',$,#582);
#578=PRODUCT_RELATED_PRODUCT_CATEGORY('Product','Product',(#582));
#579=APPLICATION_PROTOCOL_DEFINITION('international standard',
'automotive_design',2009,#580);
#580=APPLICATION_CONTEXT(
'Core Data for Automotive Mechanical Design Process');
#581=PRODUCT_CONTEXT('part definition',#580,'mechanical');
#582=PRODUCT('Product','Product',$,(#581));
#583=PRESENTATION_STYLE_ASSIGNMENT((#584));
#584=SURFACE_STYLE_USAGE(.BOTH.,#585);
#585=SURFACE_SIDE_STYLE('',(#586));
#586=SURFACE_STYLE_FILL_AREA(#587);
#587=FILL_AREA_STYLE('',(#588));
#588=FILL_AREA_STYLE_COLOUR('',#589);
#589=COLOUR_RGB('',1.,1.,1.);
ENDSEC;
END-ISO-10303-21;
