ISO-10303-21;
HEADER;
/****************************************************************
 * Generated by software with PDElib inside                    *
 * PDElib Version v51a, created Fri 09/10/2010                  *
 * ITI Transcendata (http://www.transcendata.com/)              *
 ****************************************************************/
FILE_DESCRIPTION((''),'2;1');
FILE_NAME('3d_GXM1.stp','2012-10-02T14:37:24',(''),(''),'Mechanical Desktop 2011','Mechanical Desktop 2011',', , ');
FILE_SCHEMA(('CONFIG_CONTROL_DESIGN'));
ENDSEC;
DATA;
#10=(NAMED_UNIT(*)PLANE_ANGLE_UNIT()SI_UNIT($,.RADIAN.));
#11=DIMENSIONAL_EXPONENTS(0.0,0.0,0.0,0.0,0.0,0.0,0.0);
#12=PLANE_ANGLE_MEASURE_WITH_UNIT(PLANE_ANGLE_MEASURE(0.0174532925),#10);
#16=(CONVERSION_BASED_UNIT('DEGREE',#12)NAMED_UNIT(#11)PLANE_ANGLE_UNIT());
#20=(NAMED_UNIT(*)SI_UNIT($,.STERADIAN.)SOLID_ANGLE_UNIT());
#24=(LENGTH_UNIT()NAMED_UNIT(*)SI_UNIT(.MILLI.,.METRE.));
#26=UNCERTAINTY_MEASURE_WITH_UNIT(LENGTH_MEASURE(0.000001),#24,'DISTANCE_ACCURACY_VALUE','');
#28=(GEOMETRIC_REPRESENTATION_CONTEXT(3)GLOBAL_UNCERTAINTY_ASSIGNED_CONTEXT((#26))GLOBAL_UNIT_ASSIGNED_CONTEXT((#16,#20,#24))REPRESENTATION_CONTEXT('','3D'));
#29=APPLICATION_CONTEXT('CONFIGURATION CONTROLLED 3D DESIGNS OF MECHANICAL PARTS AND ASSEMBLIES');
#30=APPLICATION_PROTOCOL_DEFINITION('INTERNATIONAL STANDARD','config_control_design',1995,#29);
#31=MECHANICAL_CONTEXT('3D Mechanical Parts',#29,'mechanical');
#32=PRODUCT('Product','Product',' ',(#31));
#33=PRODUCT_RELATED_PRODUCT_CATEGORY('detail',$,(#32));
#34=PRODUCT_CATEGORY('part',$);
#35=PRODUCT_CATEGORY_RELATIONSHIP('None','None',#34,#33);
#36=PERSON('1','Design','Joe',$,$,$);
#37=ORGANIZATION($,'None','None');
#38=PERSON_AND_ORGANIZATION(#36,#37);
#39=PERSON_AND_ORGANIZATION_ROLE('design_owner');
#40=CC_DESIGN_PERSON_AND_ORGANIZATION_ASSIGNMENT(#38,#39,(#32));
#41=PRODUCT_DEFINITION_FORMATION_WITH_SPECIFIED_SOURCE('None','None',#32,.BOUGHT.);
#42=PERSON('2','Creator','Joe',$,$,$);
#43=ORGANIZATION($,'None','None');
#44=PERSON_AND_ORGANIZATION(#42,#43);
#45=PERSON_AND_ORGANIZATION_ROLE('creator');
#46=CC_DESIGN_PERSON_AND_ORGANIZATION_ASSIGNMENT(#44,#45,(#41));
#47=PERSON('3','Supplier','Joe',$,$,$);
#48=ORGANIZATION($,'None','None');
#49=PERSON_AND_ORGANIZATION(#47,#48);
#50=PERSON_AND_ORGANIZATION_ROLE('design_supplier');
#51=CC_DESIGN_PERSON_AND_ORGANIZATION_ASSIGNMENT(#49,#50,(#41));
#52=APPROVAL_STATUS('approved');
#53=APPROVAL(#52,'None');
#54=PERSON('4','Approver','Joe',$,$,$);
#55=ORGANIZATION($,'None','None');
#56=PERSON_AND_ORGANIZATION(#54,#55);
#57=APPROVAL_ROLE('approver');
#58=APPROVAL_PERSON_ORGANIZATION(#56,#53,#57);
#59=COORDINATED_UNIVERSAL_TIME_OFFSET(8,$,.EXACT.);
#60=CALENDAR_DATE(1996,29,5);
#61=LOCAL_TIME(12,0,0.0,#59);
#62=DATE_AND_TIME(#60,#61);
#63=APPROVAL_DATE_TIME(#62,#53);
#64=CC_DESIGN_APPROVAL(#53,(#41));
#65=SECURITY_CLASSIFICATION_LEVEL('unclassified');
#66=SECURITY_CLASSIFICATION('security','None',#65);
#67=CC_DESIGN_SECURITY_CLASSIFICATION(#66,(#41));
#68=APPROVAL_STATUS('approved');
#69=APPROVAL(#68,'None');
#70=PERSON('5','Approver','Joe',$,$,$);
#71=ORGANIZATION($,'None','None');
#72=PERSON_AND_ORGANIZATION(#70,#71);
#73=APPROVAL_ROLE('approver');
#74=APPROVAL_PERSON_ORGANIZATION(#72,#69,#73);
#75=COORDINATED_UNIVERSAL_TIME_OFFSET(8,$,.EXACT.);
#76=CALENDAR_DATE(1996,29,5);
#77=LOCAL_TIME(12,0,0.0,#75);
#78=DATE_AND_TIME(#76,#77);
#79=APPROVAL_DATE_TIME(#78,#69);
#80=CC_DESIGN_APPROVAL(#69,(#66));
#81=PERSON('6','Classifier','Joe',$,$,$);
#82=ORGANIZATION($,'None','None');
#83=PERSON_AND_ORGANIZATION(#81,#82);
#84=PERSON_AND_ORGANIZATION_ROLE('classification_officer');
#85=CC_DESIGN_PERSON_AND_ORGANIZATION_ASSIGNMENT(#83,#84,(#66));
#86=COORDINATED_UNIVERSAL_TIME_OFFSET(8,$,.EXACT.);
#87=CALENDAR_DATE(1996,29,5);
#88=LOCAL_TIME(12,0,0.0,#86);
#89=DATE_AND_TIME(#87,#88);
#90=DATE_TIME_ROLE('classification_date');
#91=CC_DESIGN_DATE_AND_TIME_ASSIGNMENT(#89,#90,(#66));
#92=DESIGN_CONTEXT('Design Context',#29,'design');
#93=PRODUCT_DEFINITION('None','None',#41,#92);
#94=PERSON('7','Creator','Joe',$,$,$);
#95=ORGANIZATION($,'None','None');
#96=PERSON_AND_ORGANIZATION(#94,#95);
#97=PERSON_AND_ORGANIZATION_ROLE('creator');
#98=CC_DESIGN_PERSON_AND_ORGANIZATION_ASSIGNMENT(#96,#97,(#93));
#99=COORDINATED_UNIVERSAL_TIME_OFFSET(8,$,.EXACT.);
#100=CALENDAR_DATE(1996,29,5);
#101=LOCAL_TIME(12,0,0.0,#99);
#102=DATE_AND_TIME(#100,#101);
#103=DATE_TIME_ROLE('creation_date');
#104=CC_DESIGN_DATE_AND_TIME_ASSIGNMENT(#102,#103,(#93));
#105=APPROVAL_STATUS('approved');
#106=APPROVAL(#105,'None');
#107=PERSON('8','Approver','Joe',$,$,$);
#108=ORGANIZATION($,'None','None');
#109=PERSON_AND_ORGANIZATION(#107,#108);
#110=APPROVAL_ROLE('approver');
#111=APPROVAL_PERSON_ORGANIZATION(#109,#106,#110);
#112=COORDINATED_UNIVERSAL_TIME_OFFSET(8,$,.EXACT.);
#113=CALENDAR_DATE(1996,29,5);
#114=LOCAL_TIME(12,0,0.0,#112);
#115=DATE_AND_TIME(#113,#114);
#116=APPROVAL_DATE_TIME(#115,#106);
#117=CC_DESIGN_APPROVAL(#106,(#93));
#118=CARTESIAN_POINT('NONE',(0.0,0.0,0.0));
#119=DIRECTION('NONE',(0.0,0.0,1.0));
#120=DIRECTION('NONE',(1.0,0.0,0.0));
#121=AXIS2_PLACEMENT_3D('NONE',#118,#119,#120);
#122=SHAPE_REPRESENTATION('SR1',(#121),#28);
#123=PRODUCT_DEFINITION_SHAPE('PDS1','Test Part',#93);
#124=SHAPE_DEFINITION_REPRESENTATION(#123,#122);
#125=CARTESIAN_POINT('',(1.75,-7.105427E-015,6.950000000000003));
#126=DIRECTION('',(-0.707106781186548,0.0,0.707106781186548));
#127=DIRECTION('',(0.707106781186548,0.0,0.707106781186548));
#128=AXIS2_PLACEMENT_3D('',#125,#126,#127);
#129=PLANE('',#128);
#130=CARTESIAN_POINT('',(1.5,-22.499999999999993,6.700000000000003));
#131=VERTEX_POINT('',#130);
#132=CARTESIAN_POINT('',(2.0,-21.999999999999993,7.200000000000003));
#133=VERTEX_POINT('',#132);
#134=CARTESIAN_POINT('',(1.500000000000008,-22.500000000000014,6.700000000000018));
#135=DIRECTION('',(0.577350269189625,0.577350269189627,0.577350269189625));
#136=VECTOR('',#135,0.866025403784438);
#137=LINE('',#134,#136);
#138=EDGE_CURVE('',#131,#133,#137,.T.);
#139=ORIENTED_EDGE('',*,*,#138,.T.);
#140=CARTESIAN_POINT('',(2.0,21.999999999999993,7.200000000000003));
#141=VERTEX_POINT('',#140);
#142=CARTESIAN_POINT('',(2.0,-21.999999999999993,7.200000000000003));
#143=DIRECTION('',(0.0,1.0,0.0));
#144=VECTOR('',#143,43.999999999999986);
#145=LINE('',#142,#144);
#146=EDGE_CURVE('',#133,#141,#145,.T.);
#147=ORIENTED_EDGE('',*,*,#146,.T.);
#148=CARTESIAN_POINT('',(1.5,22.499999999999993,6.700000000000003));
#149=VERTEX_POINT('',#148);
#150=CARTESIAN_POINT('',(1.999999999999998,21.999999999999993,7.200000000000008));
#151=DIRECTION('',(-0.577350269189626,0.577350269189626,-0.577350269189626));
#152=VECTOR('',#151,0.866025403784439);
#153=LINE('',#150,#152);
#154=EDGE_CURVE('',#141,#149,#153,.T.);
#155=ORIENTED_EDGE('',*,*,#154,.T.);
#156=CARTESIAN_POINT('',(1.5,22.499999999999993,6.700000000000003));
#157=DIRECTION('',(0.0,-1.0,0.0));
#158=VECTOR('',#157,44.999999999999986);
#159=LINE('',#156,#158);
#160=EDGE_CURVE('',#149,#131,#159,.T.);
#161=ORIENTED_EDGE('',*,*,#160,.T.);
#162=EDGE_LOOP('',(#139,#147,#155,#161));
#163=FACE_OUTER_BOUND('',#162,.T.);
#164=ADVANCED_FACE('',(#163),#129,.T.);
#165=CARTESIAN_POINT('',(24.0,-7.105427E-015,7.200000000000003));
#166=DIRECTION('',(0.0,0.0,1.0));
#167=DIRECTION('',(1.0,0.0,0.0));
#168=AXIS2_PLACEMENT_3D('',#165,#166,#167);
#169=PLANE('',#168);
#170=ORIENTED_EDGE('',*,*,#146,.F.);
#171=CARTESIAN_POINT('',(46.000000000000028,-21.999999999999993,7.200000000000003));
#172=VERTEX_POINT('',#171);
#173=CARTESIAN_POINT('',(46.000000000000028,-21.999999999999993,7.200000000000003));
#174=DIRECTION('',(-1.0,0.0,0.0));
#175=VECTOR('',#174,44.000000000000028);
#176=LINE('',#173,#175);
#177=EDGE_CURVE('',#172,#133,#176,.T.);
#178=ORIENTED_EDGE('',*,*,#177,.F.);
#179=CARTESIAN_POINT('',(46.000000000000028,21.999999999999993,7.200000000000003));
#180=VERTEX_POINT('',#179);
#181=CARTESIAN_POINT('',(46.000000000000028,21.999999999999993,7.200000000000003));
#182=DIRECTION('',(0.0,-1.0,0.0));
#183=VECTOR('',#182,43.999999999999986);
#184=LINE('',#181,#183);
#185=EDGE_CURVE('',#180,#172,#184,.T.);
#186=ORIENTED_EDGE('',*,*,#185,.F.);
#187=CARTESIAN_POINT('',(2.0,21.999999999999993,7.200000000000003));
#188=DIRECTION('',(1.0,0.0,0.0));
#189=VECTOR('',#188,44.000000000000028);
#190=LINE('',#187,#189);
#191=EDGE_CURVE('',#141,#180,#190,.T.);
#192=ORIENTED_EDGE('',*,*,#191,.F.);
#193=EDGE_LOOP('',(#170,#178,#186,#192));
#194=FACE_OUTER_BOUND('',#193,.T.);
#195=ADVANCED_FACE('',(#194),#169,.T.);
#196=CARTESIAN_POINT('',(24.0,-22.249999999999993,6.950000000000003));
#197=DIRECTION('',(0.0,-0.707106781186548,0.707106781186548));
#198=DIRECTION('',(1.0,0.0,0.0));
#199=AXIS2_PLACEMENT_3D('',#196,#197,#198);
#200=PLANE('',#199);
#201=ORIENTED_EDGE('',*,*,#138,.F.);
#202=CARTESIAN_POINT('',(46.500000000000028,-22.499999999999993,6.700000000000003));
#203=VERTEX_POINT('',#202);
#204=CARTESIAN_POINT('',(1.5,-22.499999999999993,6.700000000000003));
#205=DIRECTION('',(1.0,0.0,0.0));
#206=VECTOR('',#205,45.000000000000028);
#207=LINE('',#204,#206);
#208=EDGE_CURVE('',#131,#203,#207,.T.);
#209=ORIENTED_EDGE('',*,*,#208,.T.);
#210=CARTESIAN_POINT('',(46.5,-22.500000000000021,6.70000000000001));
#211=DIRECTION('',(-0.577350269189626,0.577350269189626,0.577350269189625));
#212=VECTOR('',#211,0.866025403784438);
#213=LINE('',#210,#212);
#214=EDGE_CURVE('',#203,#172,#213,.T.);
#215=ORIENTED_EDGE('',*,*,#214,.T.);
#216=ORIENTED_EDGE('',*,*,#177,.T.);
#217=EDGE_LOOP('',(#201,#209,#215,#216));
#218=FACE_OUTER_BOUND('',#217,.T.);
#219=ADVANCED_FACE('',(#218),#200,.T.);
#220=CARTESIAN_POINT('',(46.250000000000028,-7.105427E-015,6.950000000000003));
#221=DIRECTION('',(0.707106781186548,0.0,0.707106781186548));
#222=DIRECTION('',(0.707106781186548,0.0,-0.707106781186548));
#223=AXIS2_PLACEMENT_3D('',#220,#221,#222);
#224=PLANE('',#223);
#225=ORIENTED_EDGE('',*,*,#214,.F.);
#226=CARTESIAN_POINT('',(46.500000000000028,22.499999999999993,6.700000000000003));
#227=VERTEX_POINT('',#226);
#228=CARTESIAN_POINT('',(46.500000000000028,-22.499999999999993,6.700000000000003));
#229=DIRECTION('',(0.0,1.0,0.0));
#230=VECTOR('',#229,44.999999999999986);
#231=LINE('',#228,#230);
#232=EDGE_CURVE('',#203,#227,#231,.T.);
#233=ORIENTED_EDGE('',*,*,#232,.T.);
#234=CARTESIAN_POINT('',(46.500000000000014,22.500000000000004,6.699999999999999));
#235=DIRECTION('',(-0.577350269189626,-0.577350269189626,0.577350269189626));
#236=VECTOR('',#235,0.866025403784439);
#237=LINE('',#234,#236);
#238=EDGE_CURVE('',#227,#180,#237,.T.);
#239=ORIENTED_EDGE('',*,*,#238,.T.);
#240=ORIENTED_EDGE('',*,*,#185,.T.);
#241=EDGE_LOOP('',(#225,#233,#239,#240));
#242=FACE_OUTER_BOUND('',#241,.T.);
#243=ADVANCED_FACE('',(#242),#224,.T.);
#244=CARTESIAN_POINT('',(24.0,22.249999999999993,6.950000000000003));
#245=DIRECTION('',(0.0,0.707106781186548,0.707106781186548));
#246=DIRECTION('',(1.0,0.0,0.0));
#247=AXIS2_PLACEMENT_3D('',#244,#245,#246);
#248=PLANE('',#247);
#249=ORIENTED_EDGE('',*,*,#154,.F.);
#250=ORIENTED_EDGE('',*,*,#191,.T.);
#251=ORIENTED_EDGE('',*,*,#238,.F.);
#252=CARTESIAN_POINT('',(46.500000000000028,22.499999999999993,6.700000000000003));
#253=DIRECTION('',(-1.0,0.0,0.0));
#254=VECTOR('',#253,45.000000000000028);
#255=LINE('',#252,#254);
#256=EDGE_CURVE('',#227,#149,#255,.T.);
#257=ORIENTED_EDGE('',*,*,#256,.T.);
#258=EDGE_LOOP('',(#249,#250,#251,#257));
#259=FACE_OUTER_BOUND('',#258,.T.);
#260=ADVANCED_FACE('',(#259),#248,.T.);
#261=CARTESIAN_POINT('',(46.500000000000028,-7.105427E-015,6.850000000000001));
#262=DIRECTION('',(-1.0,0.0,0.0));
#263=DIRECTION('',(0.0,0.0,1.0));
#264=AXIS2_PLACEMENT_3D('',#261,#262,#263);
#265=PLANE('',#264);
#266=ORIENTED_EDGE('',*,*,#232,.F.);
#267=CARTESIAN_POINT('',(46.500000000000028,-22.499999999999993,6.5));
#268=VERTEX_POINT('',#267);
#269=CARTESIAN_POINT('',(46.500000000000028,-22.499999999999993,6.700000000000003));
#270=DIRECTION('',(0.0,0.0,-1.0));
#271=VECTOR('',#270,0.200000000000003);
#272=LINE('',#269,#271);
#273=EDGE_CURVE('',#203,#268,#272,.T.);
#274=ORIENTED_EDGE('',*,*,#273,.T.);
#275=CARTESIAN_POINT('',(46.500000000000028,22.499999999999993,6.5));
#276=VERTEX_POINT('',#275);
#277=CARTESIAN_POINT('',(46.500000000000028,22.499999999999993,6.5));
#278=DIRECTION('',(0.0,-1.0,0.0));
#279=VECTOR('',#278,44.999999999999986);
#280=LINE('',#277,#279);
#281=EDGE_CURVE('',#276,#268,#280,.T.);
#282=ORIENTED_EDGE('',*,*,#281,.F.);
#283=CARTESIAN_POINT('',(46.500000000000028,22.499999999999993,6.700000000000003));
#284=DIRECTION('',(0.0,0.0,-1.0));
#285=VECTOR('',#284,0.200000000000003);
#286=LINE('',#283,#285);
#287=EDGE_CURVE('',#227,#276,#286,.T.);
#288=ORIENTED_EDGE('',*,*,#287,.F.);
#289=EDGE_LOOP('',(#266,#274,#282,#288));
#290=FACE_OUTER_BOUND('',#289,.T.);
#291=ADVANCED_FACE('',(#290),#265,.F.);
#292=CARTESIAN_POINT('',(24.0,-7.105427E-015,6.5));
#293=DIRECTION('',(0.0,0.0,1.0));
#294=DIRECTION('',(1.0,0.0,0.0));
#295=AXIS2_PLACEMENT_3D('',#292,#293,#294);
#296=PLANE('',#295);
#297=ORIENTED_EDGE('',*,*,#281,.T.);
#298=CARTESIAN_POINT('',(1.5,-22.499999999999993,6.5));
#299=VERTEX_POINT('',#298);
#300=CARTESIAN_POINT('',(46.500000000000028,-22.499999999999993,6.5));
#301=DIRECTION('',(-1.0,0.0,0.0));
#302=VECTOR('',#301,45.000000000000028);
#303=LINE('',#300,#302);
#304=EDGE_CURVE('',#268,#299,#303,.T.);
#305=ORIENTED_EDGE('',*,*,#304,.T.);
#306=CARTESIAN_POINT('',(1.5,22.499999999999993,6.5));
#307=VERTEX_POINT('',#306);
#308=CARTESIAN_POINT('',(1.5,-22.499999999999993,6.5));
#309=DIRECTION('',(0.0,1.0,0.0));
#310=VECTOR('',#309,44.999999999999986);
#311=LINE('',#308,#310);
#312=EDGE_CURVE('',#299,#307,#311,.T.);
#313=ORIENTED_EDGE('',*,*,#312,.T.);
#314=CARTESIAN_POINT('',(1.5,22.499999999999993,6.5));
#315=DIRECTION('',(1.0,0.0,0.0));
#316=VECTOR('',#315,45.000000000000028);
#317=LINE('',#314,#316);
#318=EDGE_CURVE('',#307,#276,#317,.T.);
#319=ORIENTED_EDGE('',*,*,#318,.T.);
#320=EDGE_LOOP('',(#297,#305,#313,#319));
#321=FACE_OUTER_BOUND('',#320,.T.);
#322=ADVANCED_FACE('',(#321),#296,.F.);
#323=CARTESIAN_POINT('',(24.0,-22.499999999999993,6.850000000000001));
#324=DIRECTION('',(0.0,1.0,0.0));
#325=DIRECTION('',(0.0,0.0,1.0));
#326=AXIS2_PLACEMENT_3D('',#323,#324,#325);
#327=PLANE('',#326);
#328=ORIENTED_EDGE('',*,*,#208,.F.);
#329=CARTESIAN_POINT('',(1.5,-22.499999999999993,6.700000000000003));
#330=DIRECTION('',(0.0,0.0,-1.0));
#331=VECTOR('',#330,0.200000000000003);
#332=LINE('',#329,#331);
#333=EDGE_CURVE('',#131,#299,#332,.T.);
#334=ORIENTED_EDGE('',*,*,#333,.T.);
#335=ORIENTED_EDGE('',*,*,#304,.F.);
#336=ORIENTED_EDGE('',*,*,#273,.F.);
#337=EDGE_LOOP('',(#328,#334,#335,#336));
#338=FACE_OUTER_BOUND('',#337,.T.);
#339=ADVANCED_FACE('',(#338),#327,.F.);
#340=CARTESIAN_POINT('',(1.5,-7.105427E-015,6.850000000000001));
#341=DIRECTION('',(1.0,0.0,0.0));
#342=DIRECTION('',(0.0,0.0,-1.0));
#343=AXIS2_PLACEMENT_3D('',#340,#341,#342);
#344=PLANE('',#343);
#345=ORIENTED_EDGE('',*,*,#160,.F.);
#346=CARTESIAN_POINT('',(1.5,22.499999999999993,6.700000000000003));
#347=DIRECTION('',(0.0,0.0,-1.0));
#348=VECTOR('',#347,0.200000000000003);
#349=LINE('',#346,#348);
#350=EDGE_CURVE('',#149,#307,#349,.T.);
#351=ORIENTED_EDGE('',*,*,#350,.T.);
#352=ORIENTED_EDGE('',*,*,#312,.F.);
#353=ORIENTED_EDGE('',*,*,#333,.F.);
#354=EDGE_LOOP('',(#345,#351,#352,#353));
#355=FACE_OUTER_BOUND('',#354,.T.);
#356=ADVANCED_FACE('',(#355),#344,.F.);
#357=CARTESIAN_POINT('',(24.0,22.499999999999993,6.850000000000001));
#358=DIRECTION('',(0.0,-1.0,0.0));
#359=DIRECTION('',(0.0,0.0,-1.0));
#360=AXIS2_PLACEMENT_3D('',#357,#358,#359);
#361=PLANE('',#360);
#362=ORIENTED_EDGE('',*,*,#256,.F.);
#363=ORIENTED_EDGE('',*,*,#287,.T.);
#364=ORIENTED_EDGE('',*,*,#318,.F.);
#365=ORIENTED_EDGE('',*,*,#350,.F.);
#366=EDGE_LOOP('',(#362,#363,#364,#365));
#367=FACE_OUTER_BOUND('',#366,.T.);
#368=ADVANCED_FACE('',(#367),#361,.F.);
#369=CLOSED_SHELL('',(#164,#195,#219,#243,#260,#291,#322,#339,#356,#368));
#370=MANIFOLD_SOLID_BREP('94AB',#369);
#371=CARTESIAN_POINT('',(24.0,-23.749999999999993,6.25));
#372=DIRECTION('',(0.0,-0.707106781186548,0.707106781186548));
#373=DIRECTION('',(1.0,0.0,0.0));
#374=AXIS2_PLACEMENT_3D('',#371,#372,#373);
#375=PLANE('',#374);
#376=CARTESIAN_POINT('',(48.000000000000028,-23.999999999999993,6.0));
#377=VERTEX_POINT('',#376);
#378=CARTESIAN_POINT('',(47.500000000000028,-23.499999999999993,6.5));
#379=VERTEX_POINT('',#378);
#380=CARTESIAN_POINT('',(48.0,-24.000000000000021,6.000000000000005));
#381=DIRECTION('',(-0.577350269189625,0.577350269189625,0.577350269189627));
#382=VECTOR('',#381,0.86602540378444);
#383=LINE('',#380,#382);
#384=EDGE_CURVE('',#377,#379,#383,.T.);
#385=ORIENTED_EDGE('',*,*,#384,.T.);
#386=CARTESIAN_POINT('',(0.5,-23.499999999999993,6.5));
#387=VERTEX_POINT('',#386);
#388=CARTESIAN_POINT('',(47.500000000000028,-23.499999999999993,6.5));
#389=DIRECTION('',(-1.0,0.0,0.0));
#390=VECTOR('',#389,47.000000000000028);
#391=LINE('',#388,#390);
#392=EDGE_CURVE('',#379,#387,#391,.T.);
#393=ORIENTED_EDGE('',*,*,#392,.T.);
#394=CARTESIAN_POINT('',(0.0,-23.999999999999993,6.0));
#395=VERTEX_POINT('',#394);
#396=CARTESIAN_POINT('',(0.500000000000008,-23.500000000000014,6.500000000000015));
#397=DIRECTION('',(-0.577350269189625,-0.577350269189627,-0.577350269189625));
#398=VECTOR('',#397,0.866025403784438);
#399=LINE('',#396,#398);
#400=EDGE_CURVE('',#387,#395,#399,.T.);
#401=ORIENTED_EDGE('',*,*,#400,.T.);
#402=CARTESIAN_POINT('',(0.0,-23.999999999999993,6.0));
#403=DIRECTION('',(1.0,0.0,0.0));
#404=VECTOR('',#403,48.000000000000028);
#405=LINE('',#402,#404);
#406=EDGE_CURVE('',#395,#377,#405,.T.);
#407=ORIENTED_EDGE('',*,*,#406,.T.);
#408=EDGE_LOOP('',(#385,#393,#401,#407));
#409=FACE_OUTER_BOUND('',#408,.T.);
#410=ADVANCED_FACE('',(#409),#375,.T.);
#411=CARTESIAN_POINT('',(24.0,-7.105427E-015,6.5));
#412=DIRECTION('',(0.0,0.0,1.0));
#413=DIRECTION('',(1.0,0.0,0.0));
#414=AXIS2_PLACEMENT_3D('',#411,#412,#413);
#415=PLANE('',#414);
#416=ORIENTED_EDGE('',*,*,#392,.F.);
#417=CARTESIAN_POINT('',(47.500000000000028,23.499999999999993,6.5));
#418=VERTEX_POINT('',#417);
#419=CARTESIAN_POINT('',(47.500000000000028,23.499999999999993,6.5));
#420=DIRECTION('',(0.0,-1.0,0.0));
#421=VECTOR('',#420,46.999999999999986);
#422=LINE('',#419,#421);
#423=EDGE_CURVE('',#418,#379,#422,.T.);
#424=ORIENTED_EDGE('',*,*,#423,.F.);
#425=CARTESIAN_POINT('',(0.5,23.499999999999993,6.5));
#426=VERTEX_POINT('',#425);
#427=CARTESIAN_POINT('',(0.5,23.499999999999993,6.5));
#428=DIRECTION('',(1.0,0.0,0.0));
#429=VECTOR('',#428,47.000000000000028);
#430=LINE('',#427,#429);
#431=EDGE_CURVE('',#426,#418,#430,.T.);
#432=ORIENTED_EDGE('',*,*,#431,.F.);
#433=CARTESIAN_POINT('',(0.5,-23.499999999999993,6.5));
#434=DIRECTION('',(0.0,1.0,0.0));
#435=VECTOR('',#434,46.999999999999986);
#436=LINE('',#433,#435);
#437=EDGE_CURVE('',#387,#426,#436,.T.);
#438=ORIENTED_EDGE('',*,*,#437,.F.);
#439=EDGE_LOOP('',(#416,#424,#432,#438));
#440=FACE_OUTER_BOUND('',#439,.T.);
#441=ADVANCED_FACE('',(#440),#415,.T.);
#442=CARTESIAN_POINT('',(47.750000000000028,-7.105427E-015,6.25));
#443=DIRECTION('',(0.707106781186548,0.0,0.707106781186548));
#444=DIRECTION('',(0.707106781186548,0.0,-0.707106781186548));
#445=AXIS2_PLACEMENT_3D('',#442,#443,#444);
#446=PLANE('',#445);
#447=ORIENTED_EDGE('',*,*,#384,.F.);
#448=CARTESIAN_POINT('',(48.000000000000028,23.999999999999993,6.0));
#449=VERTEX_POINT('',#448);
#450=CARTESIAN_POINT('',(48.000000000000028,-23.999999999999993,6.0));
#451=DIRECTION('',(0.0,1.0,0.0));
#452=VECTOR('',#451,47.999999999999986);
#453=LINE('',#450,#452);
#454=EDGE_CURVE('',#377,#449,#453,.T.);
#455=ORIENTED_EDGE('',*,*,#454,.T.);
#456=CARTESIAN_POINT('',(48.000000000000014,24.000000000000007,5.999999999999995));
#457=DIRECTION('',(-0.577350269189624,-0.577350269189628,0.577350269189626));
#458=VECTOR('',#457,0.866025403784442);
#459=LINE('',#456,#458);
#460=EDGE_CURVE('',#449,#418,#459,.T.);
#461=ORIENTED_EDGE('',*,*,#460,.T.);
#462=ORIENTED_EDGE('',*,*,#423,.T.);
#463=EDGE_LOOP('',(#447,#455,#461,#462));
#464=FACE_OUTER_BOUND('',#463,.T.);
#465=ADVANCED_FACE('',(#464),#446,.T.);
#466=CARTESIAN_POINT('',(24.0,23.749999999999993,6.25));
#467=DIRECTION('',(0.0,0.707106781186548,0.707106781186548));
#468=DIRECTION('',(1.0,0.0,0.0));
#469=AXIS2_PLACEMENT_3D('',#466,#467,#468);
#470=PLANE('',#469);
#471=ORIENTED_EDGE('',*,*,#460,.F.);
#472=CARTESIAN_POINT('',(0.0,23.999999999999993,6.0));
#473=VERTEX_POINT('',#472);
#474=CARTESIAN_POINT('',(48.000000000000028,23.999999999999993,6.0));
#475=DIRECTION('',(-1.0,0.0,0.0));
#476=VECTOR('',#475,48.000000000000028);
#477=LINE('',#474,#476);
#478=EDGE_CURVE('',#449,#473,#477,.T.);
#479=ORIENTED_EDGE('',*,*,#478,.T.);
#480=CARTESIAN_POINT('',(-1.776357E-015,23.999999999999993,6.000000000000005));
#481=DIRECTION('',(0.577350269189626,-0.577350269189626,0.577350269189626));
#482=VECTOR('',#481,0.866025403784439);
#483=LINE('',#480,#482);
#484=EDGE_CURVE('',#473,#426,#483,.T.);
#485=ORIENTED_EDGE('',*,*,#484,.T.);
#486=ORIENTED_EDGE('',*,*,#431,.T.);
#487=EDGE_LOOP('',(#471,#479,#485,#486));
#488=FACE_OUTER_BOUND('',#487,.T.);
#489=ADVANCED_FACE('',(#488),#470,.T.);
#490=CARTESIAN_POINT('',(0.25,-7.105427E-015,6.25));
#491=DIRECTION('',(-0.707106781186548,0.0,0.707106781186548));
#492=DIRECTION('',(0.707106781186548,0.0,0.707106781186548));
#493=AXIS2_PLACEMENT_3D('',#490,#491,#492);
#494=PLANE('',#493);
#495=ORIENTED_EDGE('',*,*,#400,.F.);
#496=ORIENTED_EDGE('',*,*,#437,.T.);
#497=ORIENTED_EDGE('',*,*,#484,.F.);
#498=CARTESIAN_POINT('',(0.0,23.999999999999993,6.0));
#499=DIRECTION('',(0.0,-1.0,0.0));
#500=VECTOR('',#499,47.999999999999986);
#501=LINE('',#498,#500);
#502=EDGE_CURVE('',#473,#395,#501,.T.);
#503=ORIENTED_EDGE('',*,*,#502,.T.);
#504=EDGE_LOOP('',(#495,#496,#497,#503));
#505=FACE_OUTER_BOUND('',#504,.T.);
#506=ADVANCED_FACE('',(#505),#494,.T.);
#507=CARTESIAN_POINT('',(24.0,23.999999999999993,3.25));
#508=DIRECTION('',(0.0,-1.0,0.0));
#509=DIRECTION('',(0.0,0.0,-1.0));
#510=AXIS2_PLACEMENT_3D('',#507,#508,#509);
#511=PLANE('',#510);
#512=ORIENTED_EDGE('',*,*,#478,.F.);
#513=CARTESIAN_POINT('',(48.000000000000028,23.999999999999993,0.0));
#514=VERTEX_POINT('',#513);
#515=CARTESIAN_POINT('',(48.000000000000028,23.999999999999993,6.0));
#516=DIRECTION('',(0.0,0.0,-1.0));
#517=VECTOR('',#516,6.0);
#518=LINE('',#515,#517);
#519=EDGE_CURVE('',#449,#514,#518,.T.);
#520=ORIENTED_EDGE('',*,*,#519,.T.);
#521=CARTESIAN_POINT('',(0.0,23.999999999999993,0.0));
#522=VERTEX_POINT('',#521);
#523=CARTESIAN_POINT('',(0.0,23.999999999999993,0.0));
#524=DIRECTION('',(1.0,0.0,0.0));
#525=VECTOR('',#524,48.000000000000028);
#526=LINE('',#523,#525);
#527=EDGE_CURVE('',#522,#514,#526,.T.);
#528=ORIENTED_EDGE('',*,*,#527,.F.);
#529=CARTESIAN_POINT('',(0.0,23.999999999999993,6.0));
#530=DIRECTION('',(0.0,0.0,-1.0));
#531=VECTOR('',#530,6.0);
#532=LINE('',#529,#531);
#533=EDGE_CURVE('',#473,#522,#532,.T.);
#534=ORIENTED_EDGE('',*,*,#533,.F.);
#535=EDGE_LOOP('',(#512,#520,#528,#534));
#536=FACE_OUTER_BOUND('',#535,.T.);
#537=ADVANCED_FACE('',(#536),#511,.F.);
#538=CARTESIAN_POINT('',(24.0,-7.105427E-015,0.0));
#539=DIRECTION('',(0.0,0.0,1.0));
#540=DIRECTION('',(1.0,0.0,0.0));
#541=AXIS2_PLACEMENT_3D('',#538,#539,#540);
#542=PLANE('',#541);
#543=CARTESIAN_POINT('',(48.000000000000028,-23.999999999999993,0.0));
#544=VERTEX_POINT('',#543);
#545=CARTESIAN_POINT('',(48.000000000000028,23.999999999999993,0.0));
#546=DIRECTION('',(0.0,-1.0,0.0));
#547=VECTOR('',#546,47.999999999999986);
#548=LINE('',#545,#547);
#549=EDGE_CURVE('',#514,#544,#548,.T.);
#550=ORIENTED_EDGE('',*,*,#549,.T.);
#551=CARTESIAN_POINT('',(0.0,-23.999999999999993,0.0));
#552=VERTEX_POINT('',#551);
#553=CARTESIAN_POINT('',(48.000000000000028,-23.999999999999993,0.0));
#554=DIRECTION('',(-1.0,0.0,0.0));
#555=VECTOR('',#554,48.000000000000028);
#556=LINE('',#553,#555);
#557=EDGE_CURVE('',#544,#552,#556,.T.);
#558=ORIENTED_EDGE('',*,*,#557,.T.);
#559=CARTESIAN_POINT('',(0.0,-23.999999999999993,0.0));
#560=DIRECTION('',(0.0,1.0,0.0));
#561=VECTOR('',#560,47.999999999999986);
#562=LINE('',#559,#561);
#563=EDGE_CURVE('',#552,#522,#562,.T.);
#564=ORIENTED_EDGE('',*,*,#563,.T.);
#565=ORIENTED_EDGE('',*,*,#527,.T.);
#566=EDGE_LOOP('',(#550,#558,#564,#565));
#567=FACE_OUTER_BOUND('',#566,.T.);
#568=ADVANCED_FACE('',(#567),#542,.F.);
#569=CARTESIAN_POINT('',(24.0,-23.999999999999993,3.25));
#570=DIRECTION('',(0.0,1.0,0.0));
#571=DIRECTION('',(0.0,0.0,1.0));
#572=AXIS2_PLACEMENT_3D('',#569,#570,#571);
#573=PLANE('',#572);
#574=ORIENTED_EDGE('',*,*,#406,.F.);
#575=CARTESIAN_POINT('',(0.0,-23.999999999999993,6.0));
#576=DIRECTION('',(0.0,0.0,-1.0));
#577=VECTOR('',#576,6.0);
#578=LINE('',#575,#577);
#579=EDGE_CURVE('',#395,#552,#578,.T.);
#580=ORIENTED_EDGE('',*,*,#579,.T.);
#581=ORIENTED_EDGE('',*,*,#557,.F.);
#582=CARTESIAN_POINT('',(48.000000000000028,-23.999999999999993,6.0));
#583=DIRECTION('',(0.0,0.0,-1.0));
#584=VECTOR('',#583,6.0);
#585=LINE('',#582,#584);
#586=EDGE_CURVE('',#377,#544,#585,.T.);
#587=ORIENTED_EDGE('',*,*,#586,.F.);
#588=EDGE_LOOP('',(#574,#580,#581,#587));
#589=FACE_OUTER_BOUND('',#588,.T.);
#590=ADVANCED_FACE('',(#589),#573,.F.);
#591=CARTESIAN_POINT('',(0.0,-7.105427E-015,3.25));
#592=DIRECTION('',(1.0,0.0,0.0));
#593=DIRECTION('',(0.0,0.0,-1.0));
#594=AXIS2_PLACEMENT_3D('',#591,#592,#593);
#595=PLANE('',#594);
#596=ORIENTED_EDGE('',*,*,#502,.F.);
#597=ORIENTED_EDGE('',*,*,#533,.T.);
#598=ORIENTED_EDGE('',*,*,#563,.F.);
#599=ORIENTED_EDGE('',*,*,#579,.F.);
#600=EDGE_LOOP('',(#596,#597,#598,#599));
#601=FACE_OUTER_BOUND('',#600,.T.);
#602=ADVANCED_FACE('',(#601),#595,.F.);
#603=CARTESIAN_POINT('',(48.000000000000028,-7.105427E-015,3.25));
#604=DIRECTION('',(-1.0,0.0,0.0));
#605=DIRECTION('',(0.0,0.0,1.0));
#606=AXIS2_PLACEMENT_3D('',#603,#604,#605);
#607=PLANE('',#606);
#608=ORIENTED_EDGE('',*,*,#454,.F.);
#609=ORIENTED_EDGE('',*,*,#586,.T.);
#610=ORIENTED_EDGE('',*,*,#549,.F.);
#611=ORIENTED_EDGE('',*,*,#519,.F.);
#612=EDGE_LOOP('',(#608,#609,#610,#611));
#613=FACE_OUTER_BOUND('',#612,.T.);
#614=ADVANCED_FACE('',(#613),#607,.F.);
#615=CLOSED_SHELL('',(#410,#441,#465,#489,#506,#537,#568,#590,#602,#614));
#616=MANIFOLD_SOLID_BREP('94AA',#615);
#617=ADVANCED_BREP_SHAPE_REPRESENTATION('ABSR1',(#370,#616),#28);
#618=SHAPE_REPRESENTATION_RELATIONSHIP('SRRPL1','',#617,#122);
ENDSEC;
END-ISO-10303-21;
