ISO-10303-21;
HEADER;
/* Generated by software containing ST-Developer
 * from STEP Tools, Inc. (www.steptools.com) 
 */

FILE_DESCRIPTION(
/* description */ (''),
/* implementation_level */ '2;1');

FILE_NAME(
/* name */ 'c:\\dwg_dest\\3d_GLX803.stp',
/* time_stamp */ '2021-05-06T14:30:04+02:00',
/* author */ ('Andrzej'),
/* organization */ (''),
/* preprocessor_version */ 'ST-DEVELOPER v16.13',
/* originating_system */ 'AutoCAD Mechanical',
/* authorisation */ '');

FILE_SCHEMA (('AUTOMOTIVE_DESIGN { 1 0 10303 214 3 1 1 }'));
ENDSEC;

DATA;
#10=MECHANICAL_DESIGN_GEOMETRIC_PRESENTATION_REPRESENTATION('',(#14),#304);
#11=PRESENTATION_LAYER_ASSIGNMENT('0','0',(#15));
#12=SHAPE_REPRESENTATION_RELATIONSHIP('SRR','None',#310,#13);
#13=ADVANCED_BREP_SHAPE_REPRESENTATION('',(#15),#303);
#14=STYLED_ITEM('',(#319),#15);
#15=MANIFOLD_SOLID_BREP('37C',#192);
#16=FACE_OUTER_BOUND('',#26,.T.);
#17=FACE_OUTER_BOUND('',#27,.T.);
#18=FACE_OUTER_BOUND('',#28,.T.);
#19=FACE_OUTER_BOUND('',#29,.T.);
#20=FACE_OUTER_BOUND('',#30,.T.);
#21=FACE_OUTER_BOUND('',#31,.T.);
#22=FACE_OUTER_BOUND('',#32,.T.);
#23=FACE_OUTER_BOUND('',#33,.T.);
#24=FACE_OUTER_BOUND('',#34,.T.);
#25=FACE_OUTER_BOUND('',#35,.T.);
#26=EDGE_LOOP('',(#124,#125,#126,#127));
#27=EDGE_LOOP('',(#128,#129,#130,#131));
#28=EDGE_LOOP('',(#132,#133,#134,#135));
#29=EDGE_LOOP('',(#136,#137,#138,#139));
#30=EDGE_LOOP('',(#140,#141,#142,#143,#144,#145,#146,#147));
#31=EDGE_LOOP('',(#148,#149,#150,#151));
#32=EDGE_LOOP('',(#152,#153,#154,#155));
#33=EDGE_LOOP('',(#156,#157,#158,#159));
#34=EDGE_LOOP('',(#160,#161,#162,#163,#164,#165,#166,#167));
#35=EDGE_LOOP('',(#168,#169,#170,#171));
#36=LINE('',#254,#60);
#37=LINE('',#256,#61);
#38=LINE('',#258,#62);
#39=LINE('',#259,#63);
#40=LINE('',#262,#64);
#41=LINE('',#264,#65);
#42=LINE('',#265,#66);
#43=LINE('',#269,#67);
#44=LINE('',#270,#68);
#45=LINE('',#271,#69);
#46=LINE('',#273,#70);
#47=LINE('',#276,#71);
#48=LINE('',#278,#72);
#49=LINE('',#280,#73);
#50=LINE('',#282,#74);
#51=LINE('',#283,#75);
#52=LINE('',#287,#76);
#53=LINE('',#289,#77);
#54=LINE('',#291,#78);
#55=LINE('',#292,#79);
#56=LINE('',#294,#80);
#57=LINE('',#295,#81);
#58=LINE('',#297,#82);
#59=LINE('',#299,#83);
#60=VECTOR('',#208,1.);
#61=VECTOR('',#209,1.);
#62=VECTOR('',#210,1.);
#63=VECTOR('',#211,1.);
#64=VECTOR('',#214,1.);
#65=VECTOR('',#215,1.);
#66=VECTOR('',#216,1.);
#67=VECTOR('',#219,1.);
#68=VECTOR('',#220,1.);
#69=VECTOR('',#221,1.);
#70=VECTOR('',#224,1.);
#71=VECTOR('',#227,1.);
#72=VECTOR('',#228,1.);
#73=VECTOR('',#229,1.);
#74=VECTOR('',#230,1.);
#75=VECTOR('',#231,1.);
#76=VECTOR('',#234,1.);
#77=VECTOR('',#235,1.);
#78=VECTOR('',#236,1.);
#79=VECTOR('',#237,1.);
#80=VECTOR('',#240,1.);
#81=VECTOR('',#241,1.);
#82=VECTOR('',#244,1.);
#83=VECTOR('',#247,1.);
#84=VERTEX_POINT('',#252);
#85=VERTEX_POINT('',#253);
#86=VERTEX_POINT('',#255);
#87=VERTEX_POINT('',#257);
#88=VERTEX_POINT('',#261);
#89=VERTEX_POINT('',#263);
#90=VERTEX_POINT('',#267);
#91=VERTEX_POINT('',#268);
#92=VERTEX_POINT('',#275);
#93=VERTEX_POINT('',#277);
#94=VERTEX_POINT('',#279);
#95=VERTEX_POINT('',#281);
#96=VERTEX_POINT('',#285);
#97=VERTEX_POINT('',#286);
#98=VERTEX_POINT('',#288);
#99=VERTEX_POINT('',#290);
#100=EDGE_CURVE('',#84,#85,#36,.T.);
#101=EDGE_CURVE('',#86,#84,#37,.T.);
#102=EDGE_CURVE('',#86,#87,#38,.T.);
#103=EDGE_CURVE('',#85,#87,#39,.T.);
#104=EDGE_CURVE('',#87,#88,#40,.T.);
#105=EDGE_CURVE('',#89,#86,#41,.T.);
#106=EDGE_CURVE('',#88,#89,#42,.T.);
#107=EDGE_CURVE('',#90,#91,#43,.T.);
#108=EDGE_CURVE('',#88,#90,#44,.T.);
#109=EDGE_CURVE('',#89,#91,#45,.T.);
#110=EDGE_CURVE('',#91,#84,#46,.T.);
#111=EDGE_CURVE('',#92,#90,#47,.T.);
#112=EDGE_CURVE('',#93,#92,#48,.T.);
#113=EDGE_CURVE('',#94,#93,#49,.T.);
#114=EDGE_CURVE('',#95,#94,#50,.T.);
#115=EDGE_CURVE('',#85,#95,#51,.T.);
#116=EDGE_CURVE('',#96,#97,#52,.T.);
#117=EDGE_CURVE('',#98,#96,#53,.T.);
#118=EDGE_CURVE('',#99,#98,#54,.T.);
#119=EDGE_CURVE('',#97,#99,#55,.T.);
#120=EDGE_CURVE('',#98,#93,#56,.T.);
#121=EDGE_CURVE('',#96,#94,#57,.T.);
#122=EDGE_CURVE('',#99,#92,#58,.T.);
#123=EDGE_CURVE('',#97,#95,#59,.T.);
#124=ORIENTED_EDGE('',*,*,#100,.F.);
#125=ORIENTED_EDGE('',*,*,#101,.F.);
#126=ORIENTED_EDGE('',*,*,#102,.T.);
#127=ORIENTED_EDGE('',*,*,#103,.F.);
#128=ORIENTED_EDGE('',*,*,#104,.F.);
#129=ORIENTED_EDGE('',*,*,#102,.F.);
#130=ORIENTED_EDGE('',*,*,#105,.F.);
#131=ORIENTED_EDGE('',*,*,#106,.F.);
#132=ORIENTED_EDGE('',*,*,#107,.F.);
#133=ORIENTED_EDGE('',*,*,#108,.F.);
#134=ORIENTED_EDGE('',*,*,#106,.T.);
#135=ORIENTED_EDGE('',*,*,#109,.T.);
#136=ORIENTED_EDGE('',*,*,#110,.F.);
#137=ORIENTED_EDGE('',*,*,#109,.F.);
#138=ORIENTED_EDGE('',*,*,#105,.T.);
#139=ORIENTED_EDGE('',*,*,#101,.T.);
#140=ORIENTED_EDGE('',*,*,#103,.T.);
#141=ORIENTED_EDGE('',*,*,#104,.T.);
#142=ORIENTED_EDGE('',*,*,#108,.T.);
#143=ORIENTED_EDGE('',*,*,#111,.F.);
#144=ORIENTED_EDGE('',*,*,#112,.F.);
#145=ORIENTED_EDGE('',*,*,#113,.F.);
#146=ORIENTED_EDGE('',*,*,#114,.F.);
#147=ORIENTED_EDGE('',*,*,#115,.F.);
#148=ORIENTED_EDGE('',*,*,#116,.F.);
#149=ORIENTED_EDGE('',*,*,#117,.F.);
#150=ORIENTED_EDGE('',*,*,#118,.F.);
#151=ORIENTED_EDGE('',*,*,#119,.F.);
#152=ORIENTED_EDGE('',*,*,#120,.F.);
#153=ORIENTED_EDGE('',*,*,#117,.T.);
#154=ORIENTED_EDGE('',*,*,#121,.T.);
#155=ORIENTED_EDGE('',*,*,#113,.T.);
#156=ORIENTED_EDGE('',*,*,#122,.F.);
#157=ORIENTED_EDGE('',*,*,#118,.T.);
#158=ORIENTED_EDGE('',*,*,#120,.T.);
#159=ORIENTED_EDGE('',*,*,#112,.T.);
#160=ORIENTED_EDGE('',*,*,#100,.T.);
#161=ORIENTED_EDGE('',*,*,#115,.T.);
#162=ORIENTED_EDGE('',*,*,#123,.F.);
#163=ORIENTED_EDGE('',*,*,#119,.T.);
#164=ORIENTED_EDGE('',*,*,#122,.T.);
#165=ORIENTED_EDGE('',*,*,#111,.T.);
#166=ORIENTED_EDGE('',*,*,#107,.T.);
#167=ORIENTED_EDGE('',*,*,#110,.T.);
#168=ORIENTED_EDGE('',*,*,#121,.F.);
#169=ORIENTED_EDGE('',*,*,#116,.T.);
#170=ORIENTED_EDGE('',*,*,#123,.T.);
#171=ORIENTED_EDGE('',*,*,#114,.T.);
#172=PLANE('',#194);
#173=PLANE('',#195);
#174=PLANE('',#196);
#175=PLANE('',#197);
#176=PLANE('',#198);
#177=PLANE('',#199);
#178=PLANE('',#200);
#179=PLANE('',#201);
#180=PLANE('',#202);
#181=PLANE('',#203);
#182=ADVANCED_FACE('',(#16),#172,.F.);
#183=ADVANCED_FACE('',(#17),#173,.F.);
#184=ADVANCED_FACE('',(#18),#174,.T.);
#185=ADVANCED_FACE('',(#19),#175,.T.);
#186=ADVANCED_FACE('',(#20),#176,.T.);
#187=ADVANCED_FACE('',(#21),#177,.F.);
#188=ADVANCED_FACE('',(#22),#178,.T.);
#189=ADVANCED_FACE('',(#23),#179,.T.);
#190=ADVANCED_FACE('',(#24),#180,.T.);
#191=ADVANCED_FACE('',(#25),#181,.T.);
#192=CLOSED_SHELL('',(#182,#183,#184,#185,#186,#187,#188,#189,#190,#191));
#193=AXIS2_PLACEMENT_3D('placement',#250,#204,#205);
#194=AXIS2_PLACEMENT_3D('',#251,#206,#207);
#195=AXIS2_PLACEMENT_3D('',#260,#212,#213);
#196=AXIS2_PLACEMENT_3D('',#266,#217,#218);
#197=AXIS2_PLACEMENT_3D('',#272,#222,#223);
#198=AXIS2_PLACEMENT_3D('',#274,#225,#226);
#199=AXIS2_PLACEMENT_3D('',#284,#232,#233);
#200=AXIS2_PLACEMENT_3D('',#293,#238,#239);
#201=AXIS2_PLACEMENT_3D('',#296,#242,#243);
#202=AXIS2_PLACEMENT_3D('',#298,#245,#246);
#203=AXIS2_PLACEMENT_3D('',#300,#248,#249);
#204=DIRECTION('axis',(0.,0.,1.));
#205=DIRECTION('refdir',(1.,0.,0.));
#206=DIRECTION('center_axis',(1.,0.,0.));
#207=DIRECTION('ref_axis',(0.,0.,1.));
#208=DIRECTION('',(0.,0.,-1.));
#209=DIRECTION('',(0.,-1.,0.));
#210=DIRECTION('',(0.,0.,-1.));
#211=DIRECTION('',(0.,1.,0.));
#212=DIRECTION('center_axis',(0.,1.,0.));
#213=DIRECTION('ref_axis',(0.,0.,1.));
#214=DIRECTION('',(-1.,0.,0.));
#215=DIRECTION('',(1.,0.,0.));
#216=DIRECTION('',(0.,0.,1.));
#217=DIRECTION('center_axis',(1.,0.,0.));
#218=DIRECTION('ref_axis',(0.,0.,-1.));
#219=DIRECTION('',(0.,0.,1.));
#220=DIRECTION('',(0.,-1.,0.));
#221=DIRECTION('',(0.,-1.,0.));
#222=DIRECTION('center_axis',(0.,0.,-1.));
#223=DIRECTION('ref_axis',(1.,0.,0.));
#224=DIRECTION('',(1.,0.,0.));
#225=DIRECTION('center_axis',(0.,0.,-1.));
#226=DIRECTION('ref_axis',(1.,0.,0.));
#227=DIRECTION('',(1.,0.,0.));
#228=DIRECTION('',(0.,-1.,0.));
#229=DIRECTION('',(-1.,0.,0.));
#230=DIRECTION('',(0.,1.,0.));
#231=DIRECTION('',(1.,0.,0.));
#232=DIRECTION('center_axis',(0.,0.,-1.));
#233=DIRECTION('ref_axis',(1.,0.,0.));
#234=DIRECTION('',(0.,-1.,0.));
#235=DIRECTION('',(1.,0.,0.));
#236=DIRECTION('',(0.,1.,0.));
#237=DIRECTION('',(-1.,0.,0.));
#238=DIRECTION('center_axis',(0.,1.,0.));
#239=DIRECTION('ref_axis',(0.,0.,1.));
#240=DIRECTION('',(0.,0.,-1.));
#241=DIRECTION('',(0.,0.,-1.));
#242=DIRECTION('center_axis',(-1.,0.,0.));
#243=DIRECTION('ref_axis',(0.,0.,-1.));
#244=DIRECTION('',(0.,0.,-1.));
#245=DIRECTION('center_axis',(0.,-1.,0.));
#246=DIRECTION('ref_axis',(0.,0.,-1.));
#247=DIRECTION('',(0.,0.,-1.));
#248=DIRECTION('center_axis',(1.,0.,0.));
#249=DIRECTION('ref_axis',(0.,0.,1.));
#250=CARTESIAN_POINT('',(0.,0.,0.));
#251=CARTESIAN_POINT('Origin',(18.7,62.,-38.35));
#252=CARTESIAN_POINT('',(18.7,-1.4210854715202E-14,0.));
#253=CARTESIAN_POINT('',(18.7,-1.4210854715202E-14,-76.2));
#254=CARTESIAN_POINT('',(18.7,-1.4210854715202E-14,-38.1));
#255=CARTESIAN_POINT('',(18.7,124.5,0.));
#256=CARTESIAN_POINT('',(18.7,62.,0.));
#257=CARTESIAN_POINT('',(18.7,124.5,-76.2));
#258=CARTESIAN_POINT('',(18.7,124.5,-38.35));
#259=CARTESIAN_POINT('',(18.7,62.25,-76.2));
#260=CARTESIAN_POINT('Origin',(-0.5,124.5,-38.35));
#261=CARTESIAN_POINT('',(-18.7,124.5,-76.2));
#262=CARTESIAN_POINT('',(-0.25,124.5,-76.2));
#263=CARTESIAN_POINT('',(-18.7,124.5,0.));
#264=CARTESIAN_POINT('',(-0.5,124.5,0.));
#265=CARTESIAN_POINT('',(-18.7,124.5,-38.35));
#266=CARTESIAN_POINT('Origin',(-18.7,62.,-38.35));
#267=CARTESIAN_POINT('',(-18.7,-1.4210854715202E-14,-76.2));
#268=CARTESIAN_POINT('',(-18.7,-1.4210854715202E-14,0.));
#269=CARTESIAN_POINT('',(-18.7,-1.4210854715202E-14,-38.1));
#270=CARTESIAN_POINT('',(-18.7,62.25,-76.2));
#271=CARTESIAN_POINT('',(-18.7,62.,0.));
#272=CARTESIAN_POINT('Origin',(-0.5,62.,0.));
#273=CARTESIAN_POINT('',(-0.25,-1.4210854715202E-14,0.));
#274=CARTESIAN_POINT('Origin',(0.,62.5,-76.2));
#275=CARTESIAN_POINT('',(-19.2,-1.4210854715202E-14,-76.2));
#276=CARTESIAN_POINT('',(0.,-1.4210854715202E-14,-76.2));
#277=CARTESIAN_POINT('',(-19.2,125.,-76.2));
#278=CARTESIAN_POINT('',(-19.2,62.5,-76.2));
#279=CARTESIAN_POINT('',(19.2,125.,-76.2));
#280=CARTESIAN_POINT('',(0.,125.,-76.2));
#281=CARTESIAN_POINT('',(19.2,-1.4210854715202E-14,-76.2));
#282=CARTESIAN_POINT('',(19.2,62.5,-76.2));
#283=CARTESIAN_POINT('',(0.,-1.4210854715202E-14,-76.2));
#284=CARTESIAN_POINT('Origin',(0.,62.5,0.5));
#285=CARTESIAN_POINT('',(19.2,125.,0.5));
#286=CARTESIAN_POINT('',(19.2,-1.4210854715202E-14,0.5));
#287=CARTESIAN_POINT('',(19.2,62.5,0.5));
#288=CARTESIAN_POINT('',(-19.2,125.,0.5));
#289=CARTESIAN_POINT('',(0.,125.,0.5));
#290=CARTESIAN_POINT('',(-19.2,-1.4210854715202E-14,0.5));
#291=CARTESIAN_POINT('',(-19.2,62.5,0.5));
#292=CARTESIAN_POINT('',(0.,-1.4210854715202E-14,0.5));
#293=CARTESIAN_POINT('Origin',(0.,125.,-37.85));
#294=CARTESIAN_POINT('',(-19.2,125.,-37.85));
#295=CARTESIAN_POINT('',(19.2,125.,-37.85));
#296=CARTESIAN_POINT('Origin',(-19.2,62.5,-37.85));
#297=CARTESIAN_POINT('',(-19.2,-1.4210854715202E-14,-37.85));
#298=CARTESIAN_POINT('Origin',(0.,-1.4210854715202E-14,-37.85));
#299=CARTESIAN_POINT('',(19.2,-1.4210854715202E-14,-37.85));
#300=CARTESIAN_POINT('Origin',(19.2,62.5,-37.85));
#301=UNCERTAINTY_MEASURE_WITH_UNIT(LENGTH_MEASURE(0.01),#305,
'DISTANCE_ACCURACY_VALUE',
'Maximum model space distance between geometric entities at asserted c
onnectivities');
#302=UNCERTAINTY_MEASURE_WITH_UNIT(LENGTH_MEASURE(0.01),#305,
'DISTANCE_ACCURACY_VALUE',
'Maximum model space distance between geometric entities at asserted c
onnectivities');
#303=(
GEOMETRIC_REPRESENTATION_CONTEXT(3)
GLOBAL_UNCERTAINTY_ASSIGNED_CONTEXT((#301))
GLOBAL_UNIT_ASSIGNED_CONTEXT((#305,#307,#306))
REPRESENTATION_CONTEXT('','3D')
);
#304=(
GEOMETRIC_REPRESENTATION_CONTEXT(3)
GLOBAL_UNCERTAINTY_ASSIGNED_CONTEXT((#302))
GLOBAL_UNIT_ASSIGNED_CONTEXT((#305,#307,#306))
REPRESENTATION_CONTEXT('','3D')
);
#305=(
LENGTH_UNIT()
NAMED_UNIT(*)
SI_UNIT(.MILLI.,.METRE.)
);
#306=(
NAMED_UNIT(*)
SI_UNIT($,.STERADIAN.)
SOLID_ANGLE_UNIT()
);
#307=(
NAMED_UNIT(*)
PLANE_ANGLE_UNIT()
SI_UNIT($,.RADIAN.)
);
#308=SHAPE_DEFINITION_REPRESENTATION(#309,#310);
#309=PRODUCT_DEFINITION_SHAPE('',$,#312);
#310=SHAPE_REPRESENTATION('',(#193),#303);
#311=PRODUCT_DEFINITION_CONTEXT('part definition',#316,'design');
#312=PRODUCT_DEFINITION('Product','Product',#313,#311);
#313=PRODUCT_DEFINITION_FORMATION('',$,#318);
#314=PRODUCT_RELATED_PRODUCT_CATEGORY('Product','Product',(#318));
#315=APPLICATION_PROTOCOL_DEFINITION('international standard',
'automotive_design',2009,#316);
#316=APPLICATION_CONTEXT(
'Core Data for Automotive Mechanical Design Process');
#317=PRODUCT_CONTEXT('part definition',#316,'mechanical');
#318=PRODUCT('Product','Product',$,(#317));
#319=PRESENTATION_STYLE_ASSIGNMENT((#320));
#320=SURFACE_STYLE_USAGE(.BOTH.,#321);
#321=SURFACE_SIDE_STYLE('',(#322));
#322=SURFACE_STYLE_FILL_AREA(#323);
#323=FILL_AREA_STYLE('',(#324));
#324=FILL_AREA_STYLE_COLOUR('',#325);
#325=COLOUR_RGB('',1.,1.,1.);
ENDSEC;
END-ISO-10303-21;
