ISO-10303-21;
HEADER;
/* Generated by software containing ST-Developer
 * from STEP Tools, Inc. (www.steptools.com) 
 */
/* OPTION: using custom schema-name function */

FILE_DESCRIPTION(
/* description */ (''),
/* implementation_level */ '2;1');

FILE_NAME(
/* name */ 'FILE_STP_CAD_DRAWING_3d_GLX506_prt.stp',
/* time_stamp */ '2025-02-03T15:17:03+01:00',
/* author */ (''),
/* organization */ (''),
/* preprocessor_version */ 'ST-DEVELOPER v16.7',
/* originating_system */ 'SIEMENS PLM Software NX 12.0',
/* authorisation */ '');

FILE_SCHEMA (('AUTOMOTIVE_DESIGN { 1 0 10303 214 3 1 1 1 }'));
ENDSEC;

DATA;
#10=CONSTRUCTIVE_GEOMETRY_REPRESENTATION_RELATIONSHIP(
'supplemental geometry','',#26,#11);
#11=CONSTRUCTIVE_GEOMETRY_REPRESENTATION('supplemental geometry',(#342),
#612);
#12=GEOMETRICALLY_BOUNDED_WIREFRAME_SHAPE_REPRESENTATION(
'3d_GLX506-None',(#27),#612);
#13=SHAPE_REPRESENTATION_RELATIONSHIP('None',
'relationship between 3d_GLX506-None and 3d_GLX506-None',#26,#15);
#14=SHAPE_REPRESENTATION_RELATIONSHIP('None',
'relationship between 3d_GLX506-None and 3d_GLX506-None',#26,#12);
#15=ADVANCED_BREP_SHAPE_REPRESENTATION('3d_GLX506-None',(#33),#612);
#16=SHAPE_DEFINITION_REPRESENTATION(#17,#26);
#17=PRODUCT_DEFINITION_SHAPE('','',#18);
#18=PRODUCT_DEFINITION(' ','',#20,#19);
#19=PRODUCT_DEFINITION_CONTEXT('part definition',#25,'design');
#20=PRODUCT_DEFINITION_FORMATION_WITH_SPECIFIED_SOURCE(' ',' ',#22,
 .NOT_KNOWN.);
#21=PRODUCT_RELATED_PRODUCT_CATEGORY('part','',(#22));
#22=PRODUCT('3d_GLX506','3d_GLX506',' ',(#23));
#23=PRODUCT_CONTEXT(' ',#25,'mechanical');
#24=APPLICATION_PROTOCOL_DEFINITION('international standard',
'automotive_design',2010,#25);
#25=APPLICATION_CONTEXT(
'core data for automotive mechanical design processes');
#26=SHAPE_REPRESENTATION('3d_GLX506-None',(#341),#612);
#27=GEOMETRIC_CURVE_SET('None',(#446));
#28=SURFACE_STYLE_USAGE(.BOTH.,#29);
#29=SURFACE_SIDE_STYLE('',(#30));
#30=SURFACE_STYLE_FILL_AREA(#31);
#31=FILL_AREA_STYLE('',(#32));
#32=FILL_AREA_STYLE_COLOUR('',#340);
#33=MANIFOLD_SOLID_BREP('',#34);
#34=CLOSED_SHELL('',(#67,#68,#69,#70,#71,#72,#73,#74,#75,#76,#77,#78,#79,
#80,#81,#82));
#35=CYLINDRICAL_SURFACE('',#362,11.9);
#36=CYLINDRICAL_SURFACE('',#363,11.9);
#37=CYLINDRICAL_SURFACE('',#364,9.25);
#38=CYLINDRICAL_SURFACE('',#365,5.05);
#39=CYLINDRICAL_SURFACE('',#366,9.25);
#40=B_SPLINE_CURVE_WITH_KNOTS('',3,(#517,#518,#519,#520,#521,#522,#523,
#524,#525,#526,#527,#528,#529,#530,#531,#532,#533,#534,#535,#536,#537,#538,
#539,#540,#541,#542,#543,#544,#545,#546,#547,#548,#549,#550),
 .UNSPECIFIED.,.T.,.F.,(2,2,2,2,2,2,2,2,2,2,2,2,2,2,2,2,2,2,2),(-0.0625,
0.,0.0625,0.125,0.1875,0.25,0.3125,0.375,0.4375,0.5,0.5625,0.625,0.6875,
0.75,0.8125,0.875,0.9375,1.,1.0625),.UNSPECIFIED.);
#41=B_SPLINE_CURVE_WITH_KNOTS('',3,(#553,#554,#555,#556,#557,#558,#559,
#560,#561,#562,#563,#564,#565,#566,#567,#568,#569,#570),.UNSPECIFIED.,.T.,
 .F.,(2,2,2,2,2,2,2,2,2,2,2),(-0.125,0.,0.125,0.25,0.375,0.5,0.625,0.75,
0.875,1.,1.125),.UNSPECIFIED.);
#42=B_SPLINE_CURVE_WITH_KNOTS('',3,(#572,#573,#574,#575,#576,#577,#578,
#579,#580,#581,#582,#583,#584,#585,#586,#587,#588,#589,#590,#591,#592,#593,
#594,#595,#596,#597,#598,#599,#600,#601,#602,#603,#604,#605),
 .UNSPECIFIED.,.T.,.F.,(2,2,2,2,2,2,2,2,2,2,2,2,2,2,2,2,2,2,2),(-0.0625000000000001,
0.,0.0625,0.125,0.1875,0.25,0.3125,0.375,0.4375,0.5,0.5625,0.625,0.6875,
0.75,0.8125,0.875,0.9375,1.,1.0625),.UNSPECIFIED.);
#43=FACE_BOUND('',#101,.T.);
#44=FACE_BOUND('',#102,.T.);
#45=FACE_BOUND('',#103,.T.);
#46=FACE_BOUND('',#106,.T.);
#47=FACE_BOUND('',#107,.T.);
#48=FACE_BOUND('',#108,.T.);
#49=FACE_BOUND('',#109,.T.);
#50=FACE_BOUND('',#110,.T.);
#51=FACE_BOUND('',#111,.T.);
#52=FACE_BOUND('',#112,.T.);
#53=FACE_BOUND('',#113,.T.);
#54=FACE_BOUND('',#117,.T.);
#55=FACE_BOUND('',#118,.T.);
#56=FACE_BOUND('',#119,.T.);
#57=FACE_BOUND('',#120,.T.);
#58=FACE_BOUND('',#121,.T.);
#59=FACE_BOUND('',#122,.T.);
#60=FACE_BOUND('',#123,.T.);
#61=FACE_BOUND('',#124,.T.);
#62=FACE_BOUND('',#125,.T.);
#63=FACE_BOUND('',#126,.T.);
#64=FACE_BOUND('',#127,.T.);
#65=FACE_BOUND('',#128,.T.);
#66=FACE_BOUND('',#129,.T.);
#67=ADVANCED_FACE('',(#94),#83,.F.);
#68=ADVANCED_FACE('',(#43,#44,#45),#84,.F.);
#69=ADVANCED_FACE('',(#95),#85,.F.);
#70=ADVANCED_FACE('',(#96),#86,.F.);
#71=ADVANCED_FACE('',(#46,#47),#87,.F.);
#72=ADVANCED_FACE('',(#48,#49),#88,.F.);
#73=ADVANCED_FACE('',(#50,#51),#89,.F.);
#74=ADVANCED_FACE('',(#52,#53),#90,.F.);
#75=ADVANCED_FACE('',(#97),#91,.T.);
#76=ADVANCED_FACE('',(#98),#92,.F.);
#77=ADVANCED_FACE('',(#99),#93,.T.);
#78=ADVANCED_FACE('',(#54,#55,#56),#35,.F.);
#79=ADVANCED_FACE('',(#57,#58,#59,#60),#36,.F.);
#80=ADVANCED_FACE('',(#61,#62),#37,.F.);
#81=ADVANCED_FACE('',(#63,#64),#38,.F.);
#82=ADVANCED_FACE('',(#65,#66),#39,.F.);
#83=PLANE('',#344);
#84=PLANE('',#347);
#85=PLANE('',#348);
#86=PLANE('',#349);
#87=PLANE('',#351);
#88=PLANE('',#353);
#89=PLANE('',#355);
#90=PLANE('',#357);
#91=PLANE('',#358);
#92=PLANE('',#359);
#93=PLANE('',#361);
#94=FACE_OUTER_BOUND('',#100,.T.);
#95=FACE_OUTER_BOUND('',#104,.T.);
#96=FACE_OUTER_BOUND('',#105,.T.);
#97=FACE_OUTER_BOUND('',#114,.T.);
#98=FACE_OUTER_BOUND('',#115,.T.);
#99=FACE_OUTER_BOUND('',#116,.T.);
#100=EDGE_LOOP('',(#182,#183,#184,#185,#186,#187));
#101=EDGE_LOOP('',(#188));
#102=EDGE_LOOP('',(#189));
#103=EDGE_LOOP('',(#190,#191,#192,#193));
#104=EDGE_LOOP('',(#194,#195,#196,#197));
#105=EDGE_LOOP('',(#198,#199,#200,#201));
#106=EDGE_LOOP('',(#202));
#107=EDGE_LOOP('',(#203,#204,#205,#206));
#108=EDGE_LOOP('',(#207));
#109=EDGE_LOOP('',(#208,#209,#210,#211));
#110=EDGE_LOOP('',(#212));
#111=EDGE_LOOP('',(#213,#214,#215,#216,#217,#218));
#112=EDGE_LOOP('',(#219));
#113=EDGE_LOOP('',(#220,#221,#222,#223));
#114=EDGE_LOOP('',(#224,#225,#226,#227,#228,#229,#230,#231));
#115=EDGE_LOOP('',(#232,#233,#234,#235,#236,#237,#238,#239));
#116=EDGE_LOOP('',(#240,#241));
#117=EDGE_LOOP('',(#242));
#118=EDGE_LOOP('',(#243,#244));
#119=EDGE_LOOP('',(#245));
#120=EDGE_LOOP('',(#246));
#121=EDGE_LOOP('',(#247));
#122=EDGE_LOOP('',(#248));
#123=EDGE_LOOP('',(#249));
#124=EDGE_LOOP('',(#250));
#125=EDGE_LOOP('',(#251));
#126=EDGE_LOOP('',(#252));
#127=EDGE_LOOP('',(#253));
#128=EDGE_LOOP('',(#254));
#129=EDGE_LOOP('',(#255));
#130=LINE('',#451,#156);
#131=LINE('',#453,#157);
#132=LINE('',#455,#158);
#133=LINE('',#457,#159);
#134=LINE('',#459,#160);
#135=LINE('',#465,#161);
#136=LINE('',#468,#162);
#137=LINE('',#470,#163);
#138=LINE('',#472,#164);
#139=LINE('',#474,#165);
#140=LINE('',#476,#166);
#141=LINE('',#478,#167);
#142=LINE('',#480,#168);
#143=LINE('',#482,#169);
#144=LINE('',#484,#170);
#145=LINE('',#488,#171);
#146=LINE('',#490,#172);
#147=LINE('',#492,#173);
#148=LINE('',#496,#174);
#149=LINE('',#498,#175);
#150=LINE('',#500,#176);
#151=LINE('',#504,#177);
#152=LINE('',#505,#178);
#153=LINE('',#506,#179);
#154=LINE('',#510,#180);
#155=LINE('',#511,#181);
#156=VECTOR('',#373,1.);
#157=VECTOR('',#374,1.);
#158=VECTOR('',#375,1.);
#159=VECTOR('',#376,1.);
#160=VECTOR('',#377,1.);
#161=VECTOR('',#384,1.);
#162=VECTOR('',#385,1.);
#163=VECTOR('',#386,1.);
#164=VECTOR('',#387,1.);
#165=VECTOR('',#390,1.);
#166=VECTOR('',#391,1.);
#167=VECTOR('',#392,1.);
#168=VECTOR('',#395,1.);
#169=VECTOR('',#396,1.);
#170=VECTOR('',#397,1.);
#171=VECTOR('',#402,1.);
#172=VECTOR('',#403,1.);
#173=VECTOR('',#404,1.);
#174=VECTOR('',#409,1.);
#175=VECTOR('',#410,1.);
#176=VECTOR('',#411,1.);
#177=VECTOR('',#416,1.);
#178=VECTOR('',#417,1.);
#179=VECTOR('',#418,1.);
#180=VECTOR('',#423,1.);
#181=VECTOR('',#424,1.);
#182=ORIENTED_EDGE('',*,*,#283,.F.);
#183=ORIENTED_EDGE('',*,*,#284,.T.);
#184=ORIENTED_EDGE('',*,*,#285,.T.);
#185=ORIENTED_EDGE('',*,*,#286,.F.);
#186=ORIENTED_EDGE('',*,*,#287,.F.);
#187=ORIENTED_EDGE('',*,*,#288,.T.);
#188=ORIENTED_EDGE('',*,*,#289,.F.);
#189=ORIENTED_EDGE('',*,*,#290,.F.);
#190=ORIENTED_EDGE('',*,*,#291,.T.);
#191=ORIENTED_EDGE('',*,*,#292,.F.);
#192=ORIENTED_EDGE('',*,*,#293,.F.);
#193=ORIENTED_EDGE('',*,*,#294,.T.);
#194=ORIENTED_EDGE('',*,*,#295,.T.);
#195=ORIENTED_EDGE('',*,*,#296,.F.);
#196=ORIENTED_EDGE('',*,*,#297,.F.);
#197=ORIENTED_EDGE('',*,*,#292,.T.);
#198=ORIENTED_EDGE('',*,*,#298,.T.);
#199=ORIENTED_EDGE('',*,*,#299,.F.);
#200=ORIENTED_EDGE('',*,*,#300,.F.);
#201=ORIENTED_EDGE('',*,*,#296,.T.);
#202=ORIENTED_EDGE('',*,*,#301,.F.);
#203=ORIENTED_EDGE('',*,*,#302,.T.);
#204=ORIENTED_EDGE('',*,*,#303,.F.);
#205=ORIENTED_EDGE('',*,*,#304,.F.);
#206=ORIENTED_EDGE('',*,*,#299,.T.);
#207=ORIENTED_EDGE('',*,*,#305,.T.);
#208=ORIENTED_EDGE('',*,*,#306,.T.);
#209=ORIENTED_EDGE('',*,*,#307,.F.);
#210=ORIENTED_EDGE('',*,*,#308,.F.);
#211=ORIENTED_EDGE('',*,*,#303,.T.);
#212=ORIENTED_EDGE('',*,*,#309,.F.);
#213=ORIENTED_EDGE('',*,*,#310,.T.);
#214=ORIENTED_EDGE('',*,*,#284,.F.);
#215=ORIENTED_EDGE('',*,*,#311,.F.);
#216=ORIENTED_EDGE('',*,*,#288,.F.);
#217=ORIENTED_EDGE('',*,*,#312,.F.);
#218=ORIENTED_EDGE('',*,*,#307,.T.);
#219=ORIENTED_EDGE('',*,*,#313,.F.);
#220=ORIENTED_EDGE('',*,*,#314,.T.);
#221=ORIENTED_EDGE('',*,*,#294,.F.);
#222=ORIENTED_EDGE('',*,*,#315,.F.);
#223=ORIENTED_EDGE('',*,*,#286,.T.);
#224=ORIENTED_EDGE('',*,*,#293,.T.);
#225=ORIENTED_EDGE('',*,*,#297,.T.);
#226=ORIENTED_EDGE('',*,*,#300,.T.);
#227=ORIENTED_EDGE('',*,*,#304,.T.);
#228=ORIENTED_EDGE('',*,*,#308,.T.);
#229=ORIENTED_EDGE('',*,*,#312,.T.);
#230=ORIENTED_EDGE('',*,*,#287,.T.);
#231=ORIENTED_EDGE('',*,*,#315,.T.);
#232=ORIENTED_EDGE('',*,*,#291,.F.);
#233=ORIENTED_EDGE('',*,*,#314,.F.);
#234=ORIENTED_EDGE('',*,*,#285,.F.);
#235=ORIENTED_EDGE('',*,*,#310,.F.);
#236=ORIENTED_EDGE('',*,*,#306,.F.);
#237=ORIENTED_EDGE('',*,*,#302,.F.);
#238=ORIENTED_EDGE('',*,*,#298,.F.);
#239=ORIENTED_EDGE('',*,*,#295,.F.);
#240=ORIENTED_EDGE('',*,*,#311,.T.);
#241=ORIENTED_EDGE('',*,*,#316,.T.);
#242=ORIENTED_EDGE('',*,*,#317,.F.);
#243=ORIENTED_EDGE('',*,*,#316,.F.);
#244=ORIENTED_EDGE('',*,*,#283,.T.);
#245=ORIENTED_EDGE('',*,*,#290,.T.);
#246=ORIENTED_EDGE('',*,*,#318,.F.);
#247=ORIENTED_EDGE('',*,*,#319,.F.);
#248=ORIENTED_EDGE('',*,*,#289,.T.);
#249=ORIENTED_EDGE('',*,*,#305,.F.);
#250=ORIENTED_EDGE('',*,*,#319,.T.);
#251=ORIENTED_EDGE('',*,*,#309,.T.);
#252=ORIENTED_EDGE('',*,*,#318,.T.);
#253=ORIENTED_EDGE('',*,*,#301,.T.);
#254=ORIENTED_EDGE('',*,*,#317,.T.);
#255=ORIENTED_EDGE('',*,*,#313,.T.);
#256=VERTEX_POINT('',#449);
#257=VERTEX_POINT('',#450);
#258=VERTEX_POINT('',#452);
#259=VERTEX_POINT('',#454);
#260=VERTEX_POINT('',#456);
#261=VERTEX_POINT('',#458);
#262=VERTEX_POINT('',#462);
#263=VERTEX_POINT('',#464);
#264=VERTEX_POINT('',#466);
#265=VERTEX_POINT('',#467);
#266=VERTEX_POINT('',#469);
#267=VERTEX_POINT('',#471);
#268=VERTEX_POINT('',#475);
#269=VERTEX_POINT('',#477);
#270=VERTEX_POINT('',#481);
#271=VERTEX_POINT('',#483);
#272=VERTEX_POINT('',#487);
#273=VERTEX_POINT('',#489);
#274=VERTEX_POINT('',#491);
#275=VERTEX_POINT('',#495);
#276=VERTEX_POINT('',#497);
#277=VERTEX_POINT('',#499);
#278=VERTEX_POINT('',#503);
#279=VERTEX_POINT('',#509);
#280=VERTEX_POINT('',#551);
#281=VERTEX_POINT('',#571);
#282=VERTEX_POINT('',#606);
#283=EDGE_CURVE('',#256,#257,#320,.T.);
#284=EDGE_CURVE('',#256,#258,#130,.T.);
#285=EDGE_CURVE('',#258,#259,#131,.T.);
#286=EDGE_CURVE('',#260,#259,#132,.T.);
#287=EDGE_CURVE('',#261,#260,#133,.T.);
#288=EDGE_CURVE('',#261,#257,#134,.T.);
#289=EDGE_CURVE('',#262,#262,#321,.T.);
#290=EDGE_CURVE('',#263,#263,#322,.T.);
#291=EDGE_CURVE('',#264,#265,#135,.T.);
#292=EDGE_CURVE('',#266,#265,#136,.T.);
#293=EDGE_CURVE('',#267,#266,#137,.T.);
#294=EDGE_CURVE('',#267,#264,#138,.T.);
#295=EDGE_CURVE('',#265,#268,#139,.T.);
#296=EDGE_CURVE('',#269,#268,#140,.T.);
#297=EDGE_CURVE('',#266,#269,#141,.T.);
#298=EDGE_CURVE('',#268,#270,#142,.T.);
#299=EDGE_CURVE('',#271,#270,#143,.T.);
#300=EDGE_CURVE('',#269,#271,#144,.T.);
#301=EDGE_CURVE('',#272,#272,#323,.T.);
#302=EDGE_CURVE('',#270,#273,#145,.T.);
#303=EDGE_CURVE('',#274,#273,#146,.T.);
#304=EDGE_CURVE('',#271,#274,#147,.T.);
#305=EDGE_CURVE('',#275,#275,#324,.T.);
#306=EDGE_CURVE('',#273,#276,#148,.T.);
#307=EDGE_CURVE('',#277,#276,#149,.T.);
#308=EDGE_CURVE('',#274,#277,#150,.T.);
#309=EDGE_CURVE('',#278,#278,#325,.T.);
#310=EDGE_CURVE('',#276,#258,#151,.T.);
#311=EDGE_CURVE('',#257,#256,#152,.T.);
#312=EDGE_CURVE('',#277,#261,#153,.T.);
#313=EDGE_CURVE('',#279,#279,#326,.T.);
#314=EDGE_CURVE('',#259,#264,#154,.T.);
#315=EDGE_CURVE('',#260,#267,#155,.T.);
#316=EDGE_CURVE('',#256,#257,#327,.T.);
#317=EDGE_CURVE('',#280,#280,#40,.T.);
#318=EDGE_CURVE('',#281,#281,#41,.T.);
#319=EDGE_CURVE('',#282,#282,#42,.T.);
#320=CIRCLE('',#343,11.9);
#321=CIRCLE('',#345,11.9);
#322=CIRCLE('',#346,11.9);
#323=CIRCLE('',#350,5.05);
#324=CIRCLE('',#352,11.9);
#325=CIRCLE('',#354,9.25);
#326=CIRCLE('',#356,9.25);
#327=CIRCLE('',#360,11.9);
#328=CURVE_STYLE('',#329,POSITIVE_LENGTH_MEASURE(0.7),#339);
#329=DRAUGHTING_PRE_DEFINED_CURVE_FONT('continuous');
#330=PRESENTATION_LAYER_ASSIGNMENT('1','Layer 1',(#446,#342,#33));
#331=STYLED_ITEM('',(#334),#446);
#332=STYLED_ITEM('',(#335),#342);
#333=STYLED_ITEM('',(#336),#33);
#334=PRESENTATION_STYLE_ASSIGNMENT((#337));
#335=PRESENTATION_STYLE_ASSIGNMENT((#328));
#336=PRESENTATION_STYLE_ASSIGNMENT((#28));
#337=POINT_STYLE('',#338,POSITIVE_LENGTH_MEASURE(3.),#339);
#338=PRE_DEFINED_POINT_MARKER_SYMBOL('plus');
#339=COLOUR_RGB('Medium Maroon',0.6,0.4,0.4);
#340=COLOUR_RGB('Medium Lavender',0.67843137254902,0.658808270389868,0.831357289997711);
#341=AXIS2_PLACEMENT_3D('',#445,#367,#368);
#342=AXIS2_PLACEMENT_3D('',#447,#369,#370);
#343=AXIS2_PLACEMENT_3D('',#448,#371,#372);
#344=AXIS2_PLACEMENT_3D('',#460,#378,#379);
#345=AXIS2_PLACEMENT_3D('',#461,#380,#381);
#346=AXIS2_PLACEMENT_3D('',#463,#382,#383);
#347=AXIS2_PLACEMENT_3D('',#473,#388,#389);
#348=AXIS2_PLACEMENT_3D('',#479,#393,#394);
#349=AXIS2_PLACEMENT_3D('',#485,#398,#399);
#350=AXIS2_PLACEMENT_3D('',#486,#400,#401);
#351=AXIS2_PLACEMENT_3D('',#493,#405,#406);
#352=AXIS2_PLACEMENT_3D('',#494,#407,#408);
#353=AXIS2_PLACEMENT_3D('',#501,#412,#413);
#354=AXIS2_PLACEMENT_3D('',#502,#414,#415);
#355=AXIS2_PLACEMENT_3D('',#507,#419,#420);
#356=AXIS2_PLACEMENT_3D('',#508,#421,#422);
#357=AXIS2_PLACEMENT_3D('',#512,#425,#426);
#358=AXIS2_PLACEMENT_3D('',#513,#427,#428);
#359=AXIS2_PLACEMENT_3D('',#514,#429,#430);
#360=AXIS2_PLACEMENT_3D('',#515,#431,#432);
#361=AXIS2_PLACEMENT_3D('',#516,#433,#434);
#362=AXIS2_PLACEMENT_3D('',#552,#435,#436);
#363=AXIS2_PLACEMENT_3D('',#607,#437,#438);
#364=AXIS2_PLACEMENT_3D('',#608,#439,#440);
#365=AXIS2_PLACEMENT_3D('',#609,#441,#442);
#366=AXIS2_PLACEMENT_3D('',#610,#443,#444);
#367=DIRECTION('',(0.,0.,1.));
#368=DIRECTION('',(1.,0.,0.));
#369=DIRECTION('',(0.,0.,1.));
#370=DIRECTION('',(1.,0.,0.));
#371=DIRECTION('',(1.,0.,0.));
#372=DIRECTION('',(0.,-1.,0.));
#373=DIRECTION('',(0.,1.,0.));
#374=DIRECTION('',(0.,0.,1.));
#375=DIRECTION('',(0.,1.,0.));
#376=DIRECTION('',(0.,0.,1.));
#377=DIRECTION('',(0.,1.,0.));
#378=DIRECTION('',(-1.,0.,0.));
#379=DIRECTION('',(0.,-1.,0.));
#380=DIRECTION('',(-1.,0.,-1.17341121875512E-16));
#381=DIRECTION('',(0.,-1.,0.));
#382=DIRECTION('',(-1.,0.,-1.17341121875512E-16));
#383=DIRECTION('',(0.,-1.,0.));
#384=DIRECTION('',(1.17341121875512E-16,0.,-1.));
#385=DIRECTION('',(0.,1.,0.));
#386=DIRECTION('',(1.17341121875512E-16,0.,-1.));
#387=DIRECTION('',(0.,1.,0.));
#388=DIRECTION('',(1.,0.,1.17341121875512E-16));
#389=DIRECTION('',(-1.17961196366423E-16,0.,1.));
#390=DIRECTION('',(1.,0.,-1.35078922126886E-32));
#391=DIRECTION('',(0.,1.,0.));
#392=DIRECTION('',(1.,0.,-1.35078922126886E-32));
#393=DIRECTION('',(1.35078922126886E-32,0.,1.));
#394=DIRECTION('',(-1.,0.,0.));
#395=DIRECTION('',(0.,0.,1.));
#396=DIRECTION('',(0.,1.,0.));
#397=DIRECTION('',(0.,0.,1.));
#398=DIRECTION('',(-1.,0.,0.));
#399=DIRECTION('',(0.,-1.,0.));
#400=DIRECTION('',(0.,0.,-1.));
#401=DIRECTION('',(1.,6.12323399573677E-17,0.));
#402=DIRECTION('',(1.,0.,-1.26437571135336E-17));
#403=DIRECTION('',(0.,1.,0.));
#404=DIRECTION('',(1.,0.,-1.26437571135336E-17));
#405=DIRECTION('',(1.26437571135336E-17,0.,1.));
#406=DIRECTION('',(-1.,0.,1.26437571135336E-17));
#407=DIRECTION('',(-1.,0.,-2.95901659015234E-16));
#408=DIRECTION('',(2.91550164029715E-16,0.,-1.));
#409=DIRECTION('',(-2.95901659015234E-16,0.,1.));
#410=DIRECTION('',(0.,1.,0.));
#411=DIRECTION('',(-2.95901659015234E-16,0.,1.));
#412=DIRECTION('',(-1.,0.,-2.95901659015234E-16));
#413=DIRECTION('',(2.96637714392034E-16,0.,-1.));
#414=DIRECTION('',(0.,0.,1.));
#415=DIRECTION('',(1.,-6.12323399573677E-17,0.));
#416=DIRECTION('',(-1.,0.,0.));
#417=DIRECTION('',(0.,1.,0.));
#418=DIRECTION('',(-1.,0.,0.));
#419=DIRECTION('',(0.,0.,-1.));
#420=DIRECTION('',(0.,1.,0.));
#421=DIRECTION('',(0.,0.,1.));
#422=DIRECTION('',(-1.,1.83697019872103E-16,0.));
#423=DIRECTION('',(-1.,0.,0.));
#424=DIRECTION('',(-1.,0.,0.));
#425=DIRECTION('',(0.,0.,-1.));
#426=DIRECTION('',(0.,1.,0.));
#427=DIRECTION('',(0.,-1.,0.));
#428=DIRECTION('',(1.,0.,0.));
#429=DIRECTION('',(0.,-1.,0.));
#430=DIRECTION('',(1.,0.,0.));
#431=DIRECTION('',(-1.,0.,0.));
#432=DIRECTION('',(0.,-1.,0.));
#433=DIRECTION('',(-1.,0.,0.));
#434=DIRECTION('',(0.,-1.,0.));
#435=DIRECTION('',(-1.,0.,-1.17341121875512E-16));
#436=DIRECTION('',(0.,0.,-1.));
#437=DIRECTION('',(-1.,0.,-1.17341121875512E-16));
#438=DIRECTION('',(0.,0.,-1.));
#439=DIRECTION('',(0.,0.,1.));
#440=DIRECTION('',(0.,-1.,0.));
#441=DIRECTION('',(0.,0.,-1.));
#442=DIRECTION('',(0.,1.,0.));
#443=DIRECTION('',(0.,0.,1.));
#444=DIRECTION('',(0.,-1.,0.));
#445=CARTESIAN_POINT('',(0.,0.,0.));
#446=CARTESIAN_POINT('',(0.,0.,0.));
#447=CARTESIAN_POINT('',(0.,0.,0.));
#448=CARTESIAN_POINT('',(-12.56,-6.93889390390723E-15,53.16));
#449=CARTESIAN_POINT('',(-12.56,10.1203952491985,46.9));
#450=CARTESIAN_POINT('',(-12.56,-10.1203952491985,46.9));
#451=CARTESIAN_POINT('',(-12.56,-15.875,46.9));
#452=CARTESIAN_POINT('',(-12.56,15.875,46.9));
#453=CARTESIAN_POINT('',(-12.56,15.875,46.9));
#454=CARTESIAN_POINT('',(-12.56,15.875,73.66));
#455=CARTESIAN_POINT('',(-12.56,-15.875,73.66));
#456=CARTESIAN_POINT('',(-12.56,-15.875,73.66));
#457=CARTESIAN_POINT('',(-12.56,-15.875,46.9));
#458=CARTESIAN_POINT('',(-12.56,-15.875,46.9));
#459=CARTESIAN_POINT('',(-12.56,-15.875,46.9));
#460=CARTESIAN_POINT('',(-12.56,-15.875,46.9));
#461=CARTESIAN_POINT('',(-48.26,-6.93889390390723E-15,24.968));
#462=CARTESIAN_POINT('',(-48.26,-11.9,24.968));
#463=CARTESIAN_POINT('',(-48.26,-6.93889390390723E-15,53.16));
#464=CARTESIAN_POINT('',(-48.26,-11.9,53.16));
#465=CARTESIAN_POINT('',(-48.26,15.875,73.66));
#466=CARTESIAN_POINT('',(-48.26,15.875,73.66));
#467=CARTESIAN_POINT('',(-48.26,15.875,-2.032));
#468=CARTESIAN_POINT('',(-48.26,-15.875,-2.032));
#469=CARTESIAN_POINT('',(-48.26,-15.875,-2.032));
#470=CARTESIAN_POINT('',(-48.26,-15.875,73.66));
#471=CARTESIAN_POINT('',(-48.26,-15.875,73.66));
#472=CARTESIAN_POINT('',(-48.26,-15.875,73.66));
#473=CARTESIAN_POINT('',(-48.26,-15.875,73.66));
#474=CARTESIAN_POINT('',(-48.26,15.875,-2.032));
#475=CARTESIAN_POINT('',(-19.06,15.875,-2.032));
#476=CARTESIAN_POINT('',(-19.06,-15.875,-2.032));
#477=CARTESIAN_POINT('',(-19.06,-15.875,-2.032));
#478=CARTESIAN_POINT('',(-48.26,-15.875,-2.032));
#479=CARTESIAN_POINT('',(-48.26,-15.875,-2.032));
#480=CARTESIAN_POINT('',(-19.06,15.875,-2.032));
#481=CARTESIAN_POINT('',(-19.06,15.875,0.));
#482=CARTESIAN_POINT('',(-19.06,-15.875,0.));
#483=CARTESIAN_POINT('',(-19.06,-15.875,0.));
#484=CARTESIAN_POINT('',(-19.06,-15.875,-2.032));
#485=CARTESIAN_POINT('',(-19.06,-15.875,-2.032));
#486=CARTESIAN_POINT('',(0.,0.,0.));
#487=CARTESIAN_POINT('',(5.05,3.09223316784707E-16,0.));
#488=CARTESIAN_POINT('',(-19.06,15.875,0.));
#489=CARTESIAN_POINT('',(15.24,15.875,0.));
#490=CARTESIAN_POINT('',(15.24,-15.875,0.));
#491=CARTESIAN_POINT('',(15.24,-15.875,0.));
#492=CARTESIAN_POINT('',(-19.06,-15.875,0.));
#493=CARTESIAN_POINT('',(-19.06,-15.875,0.));
#494=CARTESIAN_POINT('',(15.24,-6.93889390390723E-15,24.968));
#495=CARTESIAN_POINT('',(15.24,-6.93889390390723E-15,13.068));
#496=CARTESIAN_POINT('',(15.24,15.875,-3.46944695195361E-15));
#497=CARTESIAN_POINT('',(15.24,15.875,46.9));
#498=CARTESIAN_POINT('',(15.24,-15.875,46.9));
#499=CARTESIAN_POINT('',(15.24,-15.875,46.9));
#500=CARTESIAN_POINT('',(15.24,-15.875,-3.46944695195361E-15));
#501=CARTESIAN_POINT('',(15.24,-15.875,-3.46944695195361E-15));
#502=CARTESIAN_POINT('',(0.,-6.93889390390723E-15,46.9));
#503=CARTESIAN_POINT('',(9.25,-7.50529304851288E-15,46.9));
#504=CARTESIAN_POINT('',(15.24,15.875,46.9));
#505=CARTESIAN_POINT('',(-12.56,-15.875,46.9));
#506=CARTESIAN_POINT('',(15.24,-15.875,46.9));
#507=CARTESIAN_POINT('',(15.24,-15.875,46.9));
#508=CARTESIAN_POINT('',(-32.26,-6.93889390390723E-15,73.66));
#509=CARTESIAN_POINT('',(-41.51,-5.23969647009028E-15,73.66));
#510=CARTESIAN_POINT('',(-12.56,15.875,73.66));
#511=CARTESIAN_POINT('',(-12.56,-15.875,73.66));
#512=CARTESIAN_POINT('',(-12.56,-15.875,73.66));
#513=CARTESIAN_POINT('',(-48.26,-15.875,-2.032));
#514=CARTESIAN_POINT('',(-48.26,15.875,-2.032));
#515=CARTESIAN_POINT('',(-12.56,-6.93889390390723E-15,53.16));
#516=CARTESIAN_POINT('',(-12.56,-15.875,46.9));
#517=CARTESIAN_POINT('',(-30.9656167633018,-9.25000000000001,60.6464878280807));
#518=CARTESIAN_POINT('',(-33.5543832366982,-9.25,60.6464878280806));
#519=CARTESIAN_POINT('',(-34.7874569462001,-8.97584322964958,61.000872680073));
#520=CARTESIAN_POINT('',(-36.9590970805335,-8.0543334252974,61.944802737825));
#521=CARTESIAN_POINT('',(-37.9247716823554,-7.40288396029629,62.5275570395335));
#522=CARTESIAN_POINT('',(-39.5689422449,-5.78547253070515,63.6042387666589));
#523=CARTESIAN_POINT('',(-40.2573503801615,-4.80676894543911,64.1099314550055));
#524=CARTESIAN_POINT('',(-41.2327575268404,-2.55973888559674,64.8413425342176));
#525=CARTESIAN_POINT('',(-41.5083754781939,-1.28454195373632,65.0587372418557));
#526=CARTESIAN_POINT('',(-41.511609591178,1.26103806008749,65.0612511524059));
#527=CARTESIAN_POINT('',(-41.2413751101697,2.53020725310448,64.8480205357127));
#528=CARTESIAN_POINT('',(-40.2715302341802,4.78355839517565,64.1203531816657));
#529=CARTESIAN_POINT('',(-39.5815154928542,5.77044093225359,63.612985119463));
#530=CARTESIAN_POINT('',(-37.9336691639413,7.39675982325195,62.5328773905065));
#531=CARTESIAN_POINT('',(-36.9711776915345,8.04762106056244,61.9511686013765));
#532=CARTESIAN_POINT('',(-34.7963086317005,8.97365803339875,61.0036159780967));
#533=CARTESIAN_POINT('',(-33.5499497657743,9.24976332299987,60.6467802565476));
#534=CARTESIAN_POINT('',(-30.973446807272,9.25023636519718,60.6461957848648));
#535=CARTESIAN_POINT('',(-29.7320196397779,8.97611558737238,61.0007522462836));
#536=CARTESIAN_POINT('',(-27.5548628267135,8.05127442831849,61.9477771310711));
#537=CARTESIAN_POINT('',(-26.5954450046808,7.40309496102139,62.5274155597894));
#538=CARTESIAN_POINT('',(-24.9508586713193,5.7852788467167,63.6043687189516));
#539=CARTESIAN_POINT('',(-24.2641639288604,4.81086023902726,64.1087823395971));
#540=CARTESIAN_POINT('',(-23.284291010048,2.55233595823215,64.8435693225847));
#541=CARTESIAN_POINT('',(-23.011469964762,1.28117856713136,65.0588573806316));
#542=CARTESIAN_POINT('',(-23.0085423140397,-1.25986388886354,65.061133074923));
#543=CARTESIAN_POINT('',(-23.2780176974848,-2.53009239311527,64.8484474755018));
#544=CARTESIAN_POINT('',(-24.2521275531775,-4.79075698359011,64.117637493066));
#545=CARTESIAN_POINT('',(-24.9424583170343,-5.7751648246839,63.6102263617322));
#546=CARTESIAN_POINT('',(-26.588872987371,-7.39846358650474,62.531365766145));
#547=CARTESIAN_POINT('',(-27.5542417049487,-8.05072834043422,61.9482457571522));
#548=CARTESIAN_POINT('',(-29.7289003136572,-8.97507227384329,61.001910990241));
#549=CARTESIAN_POINT('',(-30.9656167633018,-9.25000000000001,60.6464878280807));
#550=CARTESIAN_POINT('',(-33.5543832366982,-9.25,60.6464878280806));
#551=CARTESIAN_POINT('',(-32.26,-9.25000000000003,60.6464878280808));
#552=CARTESIAN_POINT('',(305.17,-6.93889390390723E-15,53.16));
#553=CARTESIAN_POINT('',(1.35165883338579,5.05,14.1926809792006));
#554=CARTESIAN_POINT('',(-1.35165883338579,5.05,14.1926809792006));
#555=CARTESIAN_POINT('',(-2.64958454854674,4.491543247445,13.9061271586311));
#556=CARTESIAN_POINT('',(-4.48966884630513,2.6527594451973,13.3274734299431));
#557=CARTESIAN_POINT('',(-5.04834509978459,1.34237248901411,13.0687022891481));
#558=CARTESIAN_POINT('',(-5.05164718923401,-1.32989203369488,13.0673009831581));
#559=CARTESIAN_POINT('',(-4.49296586267954,-2.64902129714953,13.3263737164248));
#560=CARTESIAN_POINT('',(-2.64800455982507,-4.49356516889442,13.9066868576972));
#561=CARTESIAN_POINT('',(-1.33749542979847,-5.04816001010391,14.1918186438776));
#562=CARTESIAN_POINT('',(1.32356461795364,-5.05183038258861,14.1935388119309));
#563=CARTESIAN_POINT('',(2.63911862742567,-4.50119285663282,13.9093035339663));
#564=CARTESIAN_POINT('',(4.49702257672685,-2.64621847296033,13.3252755570772));
#565=CARTESIAN_POINT('',(5.0488115724665,-1.33707621531002,13.068504332529));
#566=CARTESIAN_POINT('',(5.05118442453142,1.32808396164949,13.0674973662237));
#567=CARTESIAN_POINT('',(4.49878296210742,2.64282515395705,13.324490102003));
#568=CARTESIAN_POINT('',(2.64365121730001,4.49829758639914,13.9081100202878));
#569=CARTESIAN_POINT('',(1.35165883338579,5.05,14.1926809792006));
#570=CARTESIAN_POINT('',(-1.35165883338579,5.05,14.1926809792006));
#571=CARTESIAN_POINT('',(-6.93889390390723E-15,5.05,14.1926809792005));
#572=CARTESIAN_POINT('',(1.2943832366982,-9.25000000000001,32.4544878280807));
#573=CARTESIAN_POINT('',(-1.2943832366982,-9.25000000000001,32.4544878280807));
#574=CARTESIAN_POINT('',(-2.52745694620009,-8.97584322964959,32.808872680073));
#575=CARTESIAN_POINT('',(-4.69909708053347,-8.05433342529741,33.752802737825));
#576=CARTESIAN_POINT('',(-5.66477168235537,-7.4028839602963,34.3355570395334));
#577=CARTESIAN_POINT('',(-7.30894224489998,-5.78547253070517,35.4122387666589));
#578=CARTESIAN_POINT('',(-7.99735038016148,-4.80676894543913,35.9179314550055));
#579=CARTESIAN_POINT('',(-8.97275752684038,-2.55973888559676,36.6493425342176));
#580=CARTESIAN_POINT('',(-9.24837547819388,-1.28454195373634,36.8667372418557));
#581=CARTESIAN_POINT('',(-9.25160959117803,1.26103806008747,36.8692511524059));
#582=CARTESIAN_POINT('',(-8.98137511016975,2.53020725310445,36.6560205357127));
#583=CARTESIAN_POINT('',(-8.01153023418023,4.78355839517563,35.9283531816657));
#584=CARTESIAN_POINT('',(-7.32151549285426,5.77044093225357,35.420985119463));
#585=CARTESIAN_POINT('',(-5.67366916394131,7.39675982325193,34.3408773905065));
#586=CARTESIAN_POINT('',(-4.71117769153455,8.04762106056242,33.7591686013765));
#587=CARTESIAN_POINT('',(-2.53630863170055,8.97365803339875,32.8116159780967));
#588=CARTESIAN_POINT('',(-1.28994976577435,9.24976332299987,32.4547802565476));
#589=CARTESIAN_POINT('',(1.28655319272797,9.25023636519718,32.4541957848648));
#590=CARTESIAN_POINT('',(2.52798036022209,8.97611558737239,32.8087522462837));
#591=CARTESIAN_POINT('',(4.70513717328652,8.0512744283185,33.7557771310711));
#592=CARTESIAN_POINT('',(5.66455499531917,7.4030949610214,34.3354155597893));
#593=CARTESIAN_POINT('',(7.30914132868067,5.78527884671671,35.4123687189516));
#594=CARTESIAN_POINT('',(7.9958360711396,4.81086023902726,35.9167823395971));
#595=CARTESIAN_POINT('',(8.97570898995204,2.55233595823216,36.6515693225847));
#596=CARTESIAN_POINT('',(9.24853003523804,1.28117856713137,36.8668573806316));
#597=CARTESIAN_POINT('',(9.25145768596033,-1.25986388886353,36.869133074923));
#598=CARTESIAN_POINT('',(8.98198230251521,-2.53009239311526,36.6564474755018));
#599=CARTESIAN_POINT('',(8.0078724468225,-4.7907569835901,35.925637493066));
#600=CARTESIAN_POINT('',(7.31754168296574,-5.7751648246839,35.4182263617323));
#601=CARTESIAN_POINT('',(5.67112701262903,-7.39846358650475,34.339365766145));
#602=CARTESIAN_POINT('',(4.70575829505134,-8.05072834043422,33.7562457571522));
#603=CARTESIAN_POINT('',(2.53109968634279,-8.97507227384329,32.809910990241));
#604=CARTESIAN_POINT('',(1.2943832366982,-9.25000000000001,32.4544878280807));
#605=CARTESIAN_POINT('',(-1.2943832366982,-9.25000000000001,32.4544878280807));
#606=CARTESIAN_POINT('',(-4.16333634234434E-14,-9.25000000000003,32.4544878280808));
#607=CARTESIAN_POINT('',(21.59,-6.93889390390723E-15,24.968));
#608=CARTESIAN_POINT('',(0.,-6.93889390390723E-15,-52.4168));
#609=CARTESIAN_POINT('',(0.,0.,129.3732));
#610=CARTESIAN_POINT('',(-32.26,-6.93889390390723E-15,-11.48));
#611=MECHANICAL_DESIGN_GEOMETRIC_PRESENTATION_REPRESENTATION('',(#331,#332,
#333),#612);
#612=(
GEOMETRIC_REPRESENTATION_CONTEXT(3)
GLOBAL_UNCERTAINTY_ASSIGNED_CONTEXT((#613))
GLOBAL_UNIT_ASSIGNED_CONTEXT((#619,#615,#614))
REPRESENTATION_CONTEXT('FILE_STP_CAD_DRAWING_3d_GLX506_prt',
'TOP_LEVEL_ASSEMBLY_PART')
);
#613=UNCERTAINTY_MEASURE_WITH_UNIT(LENGTH_MEASURE(0.0508),#619,
'DISTANCE_ACCURACY_VALUE','Maximum Tolerance applied to model');
#614=(
NAMED_UNIT(*)
SI_UNIT($,.STERADIAN.)
SOLID_ANGLE_UNIT()
);
#615=(
CONVERSION_BASED_UNIT('DEGREE',#617)
NAMED_UNIT(#616)
PLANE_ANGLE_UNIT()
);
#616=DIMENSIONAL_EXPONENTS(0.,0.,0.,0.,0.,0.,0.);
#617=PLANE_ANGLE_MEASURE_WITH_UNIT(PLANE_ANGLE_MEASURE(0.0174532925),#618);
#618=(
NAMED_UNIT(*)
PLANE_ANGLE_UNIT()
SI_UNIT($,.RADIAN.)
);
#619=(
LENGTH_UNIT()
NAMED_UNIT(*)
SI_UNIT(.MILLI.,.METRE.)
);
ENDSEC;
END-ISO-10303-21;
