ISO-10303-21;
HEADER;
/****************************************************************
 * Generated by software with PDE/Lib inside                    *
 * PDElib Version v51a, created Thu 12/14/2006                  *
 * International Technegroup Inc. (www.iti-oh.com)              *
 ****************************************************************/
FILE_DESCRIPTION((''),'2;1');
FILE_NAME('3d_GLX800.stp','2022-04-22T12:53:26',(''),(''),'Mechanical Desktop 2009','Mechanical Desktop 2009',', , ');
FILE_SCHEMA(('CONFIG_CONTROL_DESIGN'));
ENDSEC;
DATA;
#8=(NAMED_UNIT(*)PLANE_ANGLE_UNIT()SI_UNIT($,.RADIAN.));
#9=DIMENSIONAL_EXPONENTS(0.0,0.0,0.0,0.0,0.0,0.0,0.0);
#10=PLANE_ANGLE_MEASURE_WITH_UNIT(PLANE_ANGLE_MEASURE(0.017453292500000),#8);
#14=(CONVERSION_BASED_UNIT('DEGREE',#10)NAMED_UNIT(#9)PLANE_ANGLE_UNIT());
#18=(NAMED_UNIT(*)SI_UNIT($,.STERADIAN.)SOLID_ANGLE_UNIT());
#22=(LENGTH_UNIT()NAMED_UNIT(*)SI_UNIT(.MILLI.,.METRE.));
#23=UNCERTAINTY_MEASURE_WITH_UNIT(LENGTH_MEASURE(0.000001000000000),#22,'DISTANCE_ACCURACY_VALUE','');
#28=(GEOMETRIC_REPRESENTATION_CONTEXT(3)GLOBAL_UNCERTAINTY_ASSIGNED_CONTEXT((#23))GLOBAL_UNIT_ASSIGNED_CONTEXT((#14,#18,#22))REPRESENTATION_CONTEXT('None','None'));
#29=APPLICATION_CONTEXT('CONFIGURATION CONTROLLED 3D DESIGNS OF MECHANICAL PARTS AND ASSEMBLIES');
#30=APPLICATION_PROTOCOL_DEFINITION('INTERNATIONAL STANDARD','config_control_design',1995,#29);
#31=MECHANICAL_CONTEXT('3D Mechanical Parts',#29,'mechanical');
#32=PRODUCT('Product','Product',' ',(#31));
#33=PRODUCT_RELATED_PRODUCT_CATEGORY('detail',$,(#32));
#34=PRODUCT_CATEGORY('part',$);
#35=PRODUCT_CATEGORY_RELATIONSHIP('None','None',#34,#33);
#36=PERSON('1','Design','Joe',$,$,$);
#37=ORGANIZATION($,'None','None');
#38=PERSON_AND_ORGANIZATION(#36,#37);
#39=PERSON_AND_ORGANIZATION_ROLE('design_owner');
#40=CC_DESIGN_PERSON_AND_ORGANIZATION_ASSIGNMENT(#38,#39,(#32));
#41=PRODUCT_DEFINITION_FORMATION_WITH_SPECIFIED_SOURCE('None','None',#32,.NOT_KNOWN.);
#42=PERSON('2','Creator','Joe',$,$,$);
#43=ORGANIZATION($,'None','None');
#44=PERSON_AND_ORGANIZATION(#42,#43);
#45=PERSON_AND_ORGANIZATION_ROLE('creator');
#46=CC_DESIGN_PERSON_AND_ORGANIZATION_ASSIGNMENT(#44,#45,(#41));
#47=PERSON('3','Supplier','Joe',$,$,$);
#48=ORGANIZATION($,'None','None');
#49=PERSON_AND_ORGANIZATION(#47,#48);
#50=PERSON_AND_ORGANIZATION_ROLE('design_supplier');
#51=CC_DESIGN_PERSON_AND_ORGANIZATION_ASSIGNMENT(#49,#50,(#41));
#52=APPROVAL_STATUS('approved');
#53=APPROVAL(#52,'None');
#54=PERSON('4','Approver','Joe',$,$,$);
#55=ORGANIZATION($,'None','None');
#56=PERSON_AND_ORGANIZATION(#54,#55);
#57=APPROVAL_ROLE('approver');
#58=APPROVAL_PERSON_ORGANIZATION(#56,#53,#57);
#59=COORDINATED_UNIVERSAL_TIME_OFFSET(8,$,.BEHIND.);
#60=CALENDAR_DATE(1996,29,5);
#61=LOCAL_TIME(12,0,0.0,#59);
#62=DATE_AND_TIME(#60,#61);
#63=APPROVAL_DATE_TIME(#62,#53);
#64=CC_DESIGN_APPROVAL(#53,(#41));
#65=SECURITY_CLASSIFICATION_LEVEL('unclassified');
#66=SECURITY_CLASSIFICATION('security','None',#65);
#67=CC_DESIGN_SECURITY_CLASSIFICATION(#66,(#41));
#68=APPROVAL_STATUS('approved');
#69=APPROVAL(#68,'None');
#70=PERSON('5','Approver','Joe',$,$,$);
#71=ORGANIZATION($,'None','None');
#72=PERSON_AND_ORGANIZATION(#70,#71);
#73=APPROVAL_ROLE('approver');
#74=APPROVAL_PERSON_ORGANIZATION(#72,#69,#73);
#75=COORDINATED_UNIVERSAL_TIME_OFFSET(8,$,.BEHIND.);
#76=CALENDAR_DATE(1996,29,5);
#77=LOCAL_TIME(12,0,0.0,#75);
#78=DATE_AND_TIME(#76,#77);
#79=APPROVAL_DATE_TIME(#78,#69);
#80=CC_DESIGN_APPROVAL(#69,(#66));
#81=PERSON('6','Classifier','Joe',$,$,$);
#82=ORGANIZATION($,'None','None');
#83=PERSON_AND_ORGANIZATION(#81,#82);
#84=PERSON_AND_ORGANIZATION_ROLE('classification_officer');
#85=CC_DESIGN_PERSON_AND_ORGANIZATION_ASSIGNMENT(#83,#84,(#66));
#86=COORDINATED_UNIVERSAL_TIME_OFFSET(8,$,.BEHIND.);
#87=CALENDAR_DATE(1996,29,5);
#88=LOCAL_TIME(12,0,0.0,#86);
#89=DATE_AND_TIME(#87,#88);
#90=DATE_TIME_ROLE('classification_date');
#91=CC_DESIGN_DATE_AND_TIME_ASSIGNMENT(#89,#90,(#66));
#92=DESIGN_CONTEXT('Design Context',#29,'design');
#93=PRODUCT_DEFINITION('None','None',#41,#92);
#94=PERSON('7','Creator','Joe',$,$,$);
#95=ORGANIZATION($,'None','None');
#96=PERSON_AND_ORGANIZATION(#94,#95);
#97=PERSON_AND_ORGANIZATION_ROLE('creator');
#98=CC_DESIGN_PERSON_AND_ORGANIZATION_ASSIGNMENT(#96,#97,(#93));
#99=COORDINATED_UNIVERSAL_TIME_OFFSET(8,$,.BEHIND.);
#100=CALENDAR_DATE(1996,29,5);
#101=LOCAL_TIME(12,0,0.0,#99);
#102=DATE_AND_TIME(#100,#101);
#103=DATE_TIME_ROLE('creation_date');
#104=CC_DESIGN_DATE_AND_TIME_ASSIGNMENT(#102,#103,(#93));
#105=APPROVAL_STATUS('approved');
#106=APPROVAL(#105,'None');
#107=PERSON('8','Approver','Joe',$,$,$);
#108=ORGANIZATION($,'None','None');
#109=PERSON_AND_ORGANIZATION(#107,#108);
#110=APPROVAL_ROLE('approver');
#111=APPROVAL_PERSON_ORGANIZATION(#109,#106,#110);
#112=COORDINATED_UNIVERSAL_TIME_OFFSET(8,$,.BEHIND.);
#113=CALENDAR_DATE(1996,29,5);
#114=LOCAL_TIME(12,0,0.0,#112);
#115=DATE_AND_TIME(#113,#114);
#116=APPROVAL_DATE_TIME(#115,#106);
#117=CC_DESIGN_APPROVAL(#106,(#93));
#118=CARTESIAN_POINT('NONE',(0.0,0.0,0.0));
#119=DIRECTION('NONE',(0.0,0.0,1.0));
#120=DIRECTION('NONE',(1.0,0.0,0.0));
#121=AXIS2_PLACEMENT_3D('NONE',#118,#119,#120);
#122=SHAPE_REPRESENTATION('SR1',(#121),#28);
#123=PRODUCT_DEFINITION_SHAPE('PDS1','Test Part',#93);
#124=SHAPE_DEFINITION_REPRESENTATION(#123,#122);
#125=CARTESIAN_POINT('',(-2.442491E-014,75.299999999999997,39.0));
#126=DIRECTION('',(0.0,-1.0,0.0));
#127=DIRECTION('',(1.0,0.0,0.0));
#128=AXIS2_PLACEMENT_3D('',#125,#126,#127);
#129=CYLINDRICAL_SURFACE('',#128,14.749999999999982);
#130=CARTESIAN_POINT('',(14.749999999999959,74.800000000000011,39.0));
#131=VERTEX_POINT('',#130);
#132=CARTESIAN_POINT('',(-14.750000000000007,74.800000000000011,39.0));
#133=VERTEX_POINT('',#132);
#134=CARTESIAN_POINT('',(-2.442491E-014,74.799999999999997,39.0));
#135=DIRECTION('',(0.0,-1.0,0.0));
#136=DIRECTION('',(1.0,0.0,0.0));
#137=AXIS2_PLACEMENT_3D('',#134,#135,#136);
#138=CIRCLE('',#137,14.749999999999982);
#139=EDGE_CURVE('',#131,#133,#138,.T.);
#140=ORIENTED_EDGE('',*,*,#139,.T.);
#141=CARTESIAN_POINT('',(-14.750000000000007,75.299999999999997,39.0));
#142=VERTEX_POINT('',#141);
#143=CARTESIAN_POINT('',(-14.750000000000007,74.800000000000011,39.0));
#144=DIRECTION('',(0.0,1.0,0.0));
#145=VECTOR('',#144,0.499999999999986);
#146=LINE('',#143,#145);
#147=EDGE_CURVE('',#133,#142,#146,.T.);
#148=ORIENTED_EDGE('',*,*,#147,.T.);
#149=CARTESIAN_POINT('',(14.749999999999959,75.299999999999997,39.0));
#150=VERTEX_POINT('',#149);
#151=CARTESIAN_POINT('',(-2.442491E-014,75.299999999999997,39.0));
#152=DIRECTION('',(0.0,-1.0,0.0));
#153=DIRECTION('',(1.0,0.0,0.0));
#154=AXIS2_PLACEMENT_3D('',#151,#152,#153);
#155=CIRCLE('',#154,14.749999999999982);
#156=EDGE_CURVE('',#150,#142,#155,.T.);
#157=ORIENTED_EDGE('',*,*,#156,.F.);
#158=CARTESIAN_POINT('',(14.749999999999959,74.800000000000011,39.0));
#159=DIRECTION('',(0.0,1.0,0.0));
#160=VECTOR('',#159,0.499999999999986);
#161=LINE('',#158,#160);
#162=EDGE_CURVE('',#131,#150,#161,.T.);
#163=ORIENTED_EDGE('',*,*,#162,.F.);
#164=EDGE_LOOP('',(#140,#148,#157,#163));
#165=FACE_OUTER_BOUND('',#164,.T.);
#166=ADVANCED_FACE('',(#165),#129,.F.);
#167=CARTESIAN_POINT('',(-1.998401E-014,74.800000000000011,53.978844337710214));
#168=DIRECTION('',(0.0,1.0,0.0));
#169=DIRECTION('',(0.0,0.0,1.0));
#170=AXIS2_PLACEMENT_3D('',#167,#168,#169);
#171=PLANE('',#170);
#172=CARTESIAN_POINT('',(14.749999999999977,74.800000000000011,66.500000000000000));
#173=VERTEX_POINT('',#172);
#174=CARTESIAN_POINT('',(14.749999999999977,74.800000000000011,66.500000000000000));
#175=DIRECTION('',(0.0,0.0,-1.0));
#176=VECTOR('',#175,27.500000000000000);
#177=LINE('',#174,#176);
#178=EDGE_CURVE('',#173,#131,#177,.T.);
#179=ORIENTED_EDGE('',*,*,#178,.F.);
#180=CARTESIAN_POINT('',(-14.750000000000007,74.800000000000011,66.500000000000000));
#181=VERTEX_POINT('',#180);
#182=CARTESIAN_POINT('',(-14.750000000000007,74.800000000000011,66.500000000000000));
#183=DIRECTION('',(1.0,0.0,0.0));
#184=VECTOR('',#183,29.499999999999986);
#185=LINE('',#182,#184);
#186=EDGE_CURVE('',#181,#173,#185,.T.);
#187=ORIENTED_EDGE('',*,*,#186,.F.);
#188=CARTESIAN_POINT('',(-14.750000000000007,74.800000000000011,39.0));
#189=DIRECTION('',(0.0,0.0,1.0));
#190=VECTOR('',#189,27.500000000000000);
#191=LINE('',#188,#190);
#192=EDGE_CURVE('',#133,#181,#191,.T.);
#193=ORIENTED_EDGE('',*,*,#192,.F.);
#194=ORIENTED_EDGE('',*,*,#139,.F.);
#195=EDGE_LOOP('',(#179,#187,#193,#194));
#196=FACE_OUTER_BOUND('',#195,.T.);
#197=ADVANCED_FACE('',(#196),#171,.F.);
#198=CARTESIAN_POINT('',(-14.750000000000007,75.299999999999997,0.0));
#199=DIRECTION('',(1.0,0.0,0.0));
#200=DIRECTION('',(0.0,0.0,-1.0));
#201=AXIS2_PLACEMENT_3D('',#198,#199,#200);
#202=PLANE('',#201);
#203=ORIENTED_EDGE('',*,*,#147,.F.);
#204=ORIENTED_EDGE('',*,*,#192,.T.);
#205=CARTESIAN_POINT('',(-14.750000000000000,3.735173E-015,66.500000000000000));
#206=VERTEX_POINT('',#205);
#207=CARTESIAN_POINT('',(-14.750000000000007,74.800000000000011,66.500000000000000));
#208=DIRECTION('',(0.0,-1.0,0.0));
#209=VECTOR('',#208,74.800000000000011);
#210=LINE('',#207,#209);
#211=EDGE_CURVE('',#181,#206,#210,.T.);
#212=ORIENTED_EDGE('',*,*,#211,.T.);
#213=CARTESIAN_POINT('',(-14.750000000000000,-1.806354E-015,0.0));
#214=VERTEX_POINT('',#213);
#215=CARTESIAN_POINT('',(-14.750000000000000,-1.806354E-015,0.0));
#216=DIRECTION('',(0.0,0.0,1.0));
#217=VECTOR('',#216,66.500000000000000);
#218=LINE('',#215,#217);
#219=EDGE_CURVE('',#214,#206,#218,.T.);
#220=ORIENTED_EDGE('',*,*,#219,.F.);
#221=CARTESIAN_POINT('',(-14.750000000000007,75.299999999999997,0.0));
#222=VERTEX_POINT('',#221);
#223=CARTESIAN_POINT('',(-14.750000000000007,75.299999999999997,0.0));
#224=DIRECTION('',(0.0,-1.0,0.0));
#225=VECTOR('',#224,75.299999999999997);
#226=LINE('',#223,#225);
#227=EDGE_CURVE('',#222,#214,#226,.T.);
#228=ORIENTED_EDGE('',*,*,#227,.F.);
#229=CARTESIAN_POINT('',(-14.750000000000007,75.299999999999997,0.0));
#230=DIRECTION('',(0.0,0.0,1.0));
#231=VECTOR('',#230,39.0);
#232=LINE('',#229,#231);
#233=EDGE_CURVE('',#222,#142,#232,.T.);
#234=ORIENTED_EDGE('',*,*,#233,.T.);
#235=EDGE_LOOP('',(#203,#204,#212,#220,#228,#234));
#236=FACE_OUTER_BOUND('',#235,.T.);
#237=ADVANCED_FACE('',(#236),#202,.T.);
#238=CARTESIAN_POINT('',(-7.243256E-015,37.650000000000006,66.500000000000028));
#239=DIRECTION('',(0.0,0.0,1.0));
#240=DIRECTION('',(1.0,0.0,0.0));
#241=AXIS2_PLACEMENT_3D('',#238,#239,#240);
#242=PLANE('',#241);
#243=ORIENTED_EDGE('',*,*,#186,.T.);
#244=CARTESIAN_POINT('',(14.750000000000005,3.735173E-015,66.500000000000000));
#245=VERTEX_POINT('',#244);
#246=CARTESIAN_POINT('',(14.750000000000005,3.735173E-015,66.500000000000000));
#247=DIRECTION('',(0.0,1.0,0.0));
#248=VECTOR('',#247,74.800000000000011);
#249=LINE('',#246,#248);
#250=EDGE_CURVE('',#245,#173,#249,.T.);
#251=ORIENTED_EDGE('',*,*,#250,.F.);
#252=CARTESIAN_POINT('',(-14.750000000000000,3.735173E-015,66.500000000000000));
#253=DIRECTION('',(1.0,0.0,0.0));
#254=VECTOR('',#253,29.500000000000007);
#255=LINE('',#252,#254);
#256=EDGE_CURVE('',#206,#245,#255,.T.);
#257=ORIENTED_EDGE('',*,*,#256,.F.);
#258=ORIENTED_EDGE('',*,*,#211,.F.);
#259=EDGE_LOOP('',(#243,#251,#257,#258));
#260=FACE_OUTER_BOUND('',#259,.T.);
#261=ADVANCED_FACE('',(#260),#242,.F.);
#262=CARTESIAN_POINT('',(14.750000000000004,3.612708E-015,0.0));
#263=DIRECTION('',(-1.0,0.0,0.0));
#264=DIRECTION('',(0.0,0.0,1.0));
#265=AXIS2_PLACEMENT_3D('',#262,#263,#264);
#266=PLANE('',#265);
#267=ORIENTED_EDGE('',*,*,#162,.T.);
#268=CARTESIAN_POINT('',(14.749999999999979,75.300000000000011,0.0));
#269=VERTEX_POINT('',#268);
#270=CARTESIAN_POINT('',(14.749999999999979,75.300000000000011,0.0));
#271=DIRECTION('',(0.0,0.0,1.0));
#272=VECTOR('',#271,39.0);
#273=LINE('',#270,#272);
#274=EDGE_CURVE('',#269,#150,#273,.T.);
#275=ORIENTED_EDGE('',*,*,#274,.F.);
#276=CARTESIAN_POINT('',(14.750000000000004,3.612708E-015,0.0));
#277=VERTEX_POINT('',#276);
#278=CARTESIAN_POINT('',(14.749999999999979,75.300000000000011,0.0));
#279=DIRECTION('',(0.0,-1.0,0.0));
#280=VECTOR('',#279,75.300000000000011);
#281=LINE('',#278,#280);
#282=EDGE_CURVE('',#269,#277,#281,.T.);
#283=ORIENTED_EDGE('',*,*,#282,.T.);
#284=CARTESIAN_POINT('',(14.750000000000004,3.612708E-015,0.0));
#285=DIRECTION('',(0.0,0.0,1.0));
#286=VECTOR('',#285,66.500000000000000);
#287=LINE('',#284,#286);
#288=EDGE_CURVE('',#277,#245,#287,.T.);
#289=ORIENTED_EDGE('',*,*,#288,.T.);
#290=ORIENTED_EDGE('',*,*,#250,.T.);
#291=ORIENTED_EDGE('',*,*,#178,.T.);
#292=EDGE_LOOP('',(#267,#275,#283,#289,#290,#291));
#293=FACE_OUTER_BOUND('',#292,.T.);
#294=ADVANCED_FACE('',(#293),#266,.T.);
#295=CARTESIAN_POINT('',(15.249999999999972,75.300000000000011,0.0));
#296=DIRECTION('',(1.0,0.0,0.0));
#297=DIRECTION('',(0.0,0.0,-1.0));
#298=AXIS2_PLACEMENT_3D('',#295,#296,#297);
#299=PLANE('',#298);
#300=CARTESIAN_POINT('',(15.250000000000004,3.735173E-015,0.0));
#301=VERTEX_POINT('',#300);
#302=CARTESIAN_POINT('',(15.250000000000004,3.735173E-015,67.0));
#303=VERTEX_POINT('',#302);
#304=CARTESIAN_POINT('',(15.250000000000004,3.735173E-015,0.0));
#305=DIRECTION('',(0.0,0.0,1.0));
#306=VECTOR('',#305,67.0);
#307=LINE('',#304,#306);
#308=EDGE_CURVE('',#301,#303,#307,.T.);
#309=ORIENTED_EDGE('',*,*,#308,.F.);
#310=CARTESIAN_POINT('',(15.249999999999972,75.300000000000011,0.0));
#311=VERTEX_POINT('',#310);
#312=CARTESIAN_POINT('',(15.250000000000004,3.735173E-015,0.0));
#313=DIRECTION('',(0.0,1.0,0.0));
#314=VECTOR('',#313,75.300000000000011);
#315=LINE('',#312,#314);
#316=EDGE_CURVE('',#301,#311,#315,.T.);
#317=ORIENTED_EDGE('',*,*,#316,.T.);
#318=CARTESIAN_POINT('',(15.249999999999972,75.300000000000011,67.0));
#319=VERTEX_POINT('',#318);
#320=CARTESIAN_POINT('',(15.249999999999972,75.300000000000011,0.0));
#321=DIRECTION('',(0.0,0.0,1.0));
#322=VECTOR('',#321,67.0);
#323=LINE('',#320,#322);
#324=EDGE_CURVE('',#311,#319,#323,.T.);
#325=ORIENTED_EDGE('',*,*,#324,.T.);
#326=CARTESIAN_POINT('',(15.249999999999972,75.300000000000011,67.0));
#327=DIRECTION('',(0.0,-1.0,0.0));
#328=VECTOR('',#327,75.300000000000011);
#329=LINE('',#326,#328);
#330=EDGE_CURVE('',#319,#303,#329,.T.);
#331=ORIENTED_EDGE('',*,*,#330,.T.);
#332=EDGE_LOOP('',(#309,#317,#325,#331));
#333=FACE_OUTER_BOUND('',#332,.T.);
#334=ADVANCED_FACE('',(#333),#299,.T.);
#335=CARTESIAN_POINT('',(14.999999999999991,37.650000000000013,0.0));
#336=DIRECTION('',(0.0,0.0,1.0));
#337=DIRECTION('',(1.0,0.0,0.0));
#338=AXIS2_PLACEMENT_3D('',#335,#336,#337);
#339=PLANE('',#338);
#340=CARTESIAN_POINT('',(15.249999999999972,75.300000000000011,0.0));
#341=DIRECTION('',(-1.0,0.0,0.0));
#342=VECTOR('',#341,0.499999999999993);
#343=LINE('',#340,#342);
#344=EDGE_CURVE('',#311,#269,#343,.T.);
#345=ORIENTED_EDGE('',*,*,#344,.F.);
#346=ORIENTED_EDGE('',*,*,#316,.F.);
#347=CARTESIAN_POINT('',(14.750000000000004,3.612708E-015,0.0));
#348=DIRECTION('',(1.0,0.0,0.0));
#349=VECTOR('',#348,0.500000000000000);
#350=LINE('',#347,#349);
#351=EDGE_CURVE('',#277,#301,#350,.T.);
#352=ORIENTED_EDGE('',*,*,#351,.F.);
#353=ORIENTED_EDGE('',*,*,#282,.F.);
#354=EDGE_LOOP('',(#345,#346,#352,#353));
#355=FACE_OUTER_BOUND('',#354,.T.);
#356=ADVANCED_FACE('',(#355),#339,.F.);
#357=CARTESIAN_POINT('',(-14.750000000000000,-1.806354E-015,0.0));
#358=DIRECTION('',(0.0,-1.0,0.0));
#359=DIRECTION('',(0.0,0.0,-1.0));
#360=AXIS2_PLACEMENT_3D('',#357,#358,#359);
#361=PLANE('',#360);
#362=CARTESIAN_POINT('',(-15.250000000000002,-1.867586E-015,0.0));
#363=VERTEX_POINT('',#362);
#364=CARTESIAN_POINT('',(-15.250000000000002,-1.867586E-015,67.0));
#365=VERTEX_POINT('',#364);
#366=CARTESIAN_POINT('',(-15.250000000000002,-1.867586E-015,0.0));
#367=DIRECTION('',(0.0,0.0,1.0));
#368=VECTOR('',#367,67.0);
#369=LINE('',#366,#368);
#370=EDGE_CURVE('',#363,#365,#369,.T.);
#371=ORIENTED_EDGE('',*,*,#370,.F.);
#372=CARTESIAN_POINT('',(-14.750000000000000,-1.806354E-015,0.0));
#373=DIRECTION('',(-1.0,0.0,0.0));
#374=VECTOR('',#373,0.500000000000002);
#375=LINE('',#372,#374);
#376=EDGE_CURVE('',#214,#363,#375,.T.);
#377=ORIENTED_EDGE('',*,*,#376,.F.);
#378=ORIENTED_EDGE('',*,*,#219,.T.);
#379=ORIENTED_EDGE('',*,*,#256,.T.);
#380=ORIENTED_EDGE('',*,*,#288,.F.);
#381=ORIENTED_EDGE('',*,*,#351,.T.);
#382=ORIENTED_EDGE('',*,*,#308,.T.);
#383=CARTESIAN_POINT('',(15.250000000000004,3.735173E-015,67.0));
#384=DIRECTION('',(-1.0,0.0,0.0));
#385=VECTOR('',#384,30.500000000000007);
#386=LINE('',#383,#385);
#387=EDGE_CURVE('',#303,#365,#386,.T.);
#388=ORIENTED_EDGE('',*,*,#387,.T.);
#389=EDGE_LOOP('',(#371,#377,#378,#379,#380,#381,#382,#388));
#390=FACE_OUTER_BOUND('',#389,.T.);
#391=ADVANCED_FACE('',(#390),#361,.T.);
#392=CARTESIAN_POINT('',(-15.250000000000002,-1.867586E-015,0.0));
#393=DIRECTION('',(-1.0,0.0,0.0));
#394=DIRECTION('',(0.0,0.0,1.0));
#395=AXIS2_PLACEMENT_3D('',#392,#393,#394);
#396=PLANE('',#395);
#397=CARTESIAN_POINT('',(-15.250000000000014,75.299999999999997,0.0));
#398=VERTEX_POINT('',#397);
#399=CARTESIAN_POINT('',(-15.250000000000014,75.299999999999997,67.0));
#400=VERTEX_POINT('',#399);
#401=CARTESIAN_POINT('',(-15.250000000000014,75.299999999999997,0.0));
#402=DIRECTION('',(0.0,0.0,1.0));
#403=VECTOR('',#402,67.0);
#404=LINE('',#401,#403);
#405=EDGE_CURVE('',#398,#400,#404,.T.);
#406=ORIENTED_EDGE('',*,*,#405,.F.);
#407=CARTESIAN_POINT('',(-15.250000000000002,-1.867586E-015,0.0));
#408=DIRECTION('',(0.0,1.0,0.0));
#409=VECTOR('',#408,75.299999999999997);
#410=LINE('',#407,#409);
#411=EDGE_CURVE('',#363,#398,#410,.T.);
#412=ORIENTED_EDGE('',*,*,#411,.F.);
#413=ORIENTED_EDGE('',*,*,#370,.T.);
#414=CARTESIAN_POINT('',(-15.250000000000002,-1.867586E-015,67.0));
#415=DIRECTION('',(0.0,1.0,0.0));
#416=VECTOR('',#415,75.299999999999997);
#417=LINE('',#414,#416);
#418=EDGE_CURVE('',#365,#400,#417,.T.);
#419=ORIENTED_EDGE('',*,*,#418,.T.);
#420=EDGE_LOOP('',(#406,#412,#413,#419));
#421=FACE_OUTER_BOUND('',#420,.T.);
#422=ADVANCED_FACE('',(#421),#396,.T.);
#423=CARTESIAN_POINT('',(-15.250000000000014,75.299999999999997,0.0));
#424=DIRECTION('',(0.0,1.0,0.0));
#425=DIRECTION('',(0.0,0.0,1.0));
#426=AXIS2_PLACEMENT_3D('',#423,#424,#425);
#427=PLANE('',#426);
#428=ORIENTED_EDGE('',*,*,#233,.F.);
#429=CARTESIAN_POINT('',(-15.250000000000014,75.299999999999997,0.0));
#430=DIRECTION('',(1.0,0.0,0.0));
#431=VECTOR('',#430,0.500000000000007);
#432=LINE('',#429,#431);
#433=EDGE_CURVE('',#398,#222,#432,.T.);
#434=ORIENTED_EDGE('',*,*,#433,.F.);
#435=ORIENTED_EDGE('',*,*,#405,.T.);
#436=CARTESIAN_POINT('',(-15.250000000000014,75.299999999999997,67.0));
#437=DIRECTION('',(1.0,0.0,0.0));
#438=VECTOR('',#437,30.499999999999986);
#439=LINE('',#436,#438);
#440=EDGE_CURVE('',#400,#319,#439,.T.);
#441=ORIENTED_EDGE('',*,*,#440,.T.);
#442=ORIENTED_EDGE('',*,*,#324,.F.);
#443=ORIENTED_EDGE('',*,*,#344,.T.);
#444=ORIENTED_EDGE('',*,*,#274,.T.);
#445=ORIENTED_EDGE('',*,*,#156,.T.);
#446=EDGE_LOOP('',(#428,#434,#435,#441,#442,#443,#444,#445));
#447=FACE_OUTER_BOUND('',#446,.T.);
#448=ADVANCED_FACE('',(#447),#427,.T.);
#449=CARTESIAN_POINT('',(-15.000000000000004,37.649999999999999,67.0));
#450=DIRECTION('',(0.0,0.0,1.0));
#451=DIRECTION('',(1.0,0.0,0.0));
#452=AXIS2_PLACEMENT_3D('',#449,#450,#451);
#453=PLANE('',#452);
#454=ORIENTED_EDGE('',*,*,#440,.F.);
#455=ORIENTED_EDGE('',*,*,#418,.F.);
#456=ORIENTED_EDGE('',*,*,#387,.F.);
#457=ORIENTED_EDGE('',*,*,#330,.F.);
#458=EDGE_LOOP('',(#454,#455,#456,#457));
#459=FACE_OUTER_BOUND('',#458,.T.);
#460=ADVANCED_FACE('',(#459),#453,.T.);
#461=CARTESIAN_POINT('',(-15.000000000000004,37.649999999999999,0.0));
#462=DIRECTION('',(0.0,0.0,1.0));
#463=DIRECTION('',(1.0,0.0,0.0));
#464=AXIS2_PLACEMENT_3D('',#461,#462,#463);
#465=PLANE('',#464);
#466=ORIENTED_EDGE('',*,*,#433,.T.);
#467=ORIENTED_EDGE('',*,*,#227,.T.);
#468=ORIENTED_EDGE('',*,*,#376,.T.);
#469=ORIENTED_EDGE('',*,*,#411,.T.);
#470=EDGE_LOOP('',(#466,#467,#468,#469));
#471=FACE_OUTER_BOUND('',#470,.T.);
#472=ADVANCED_FACE('',(#471),#465,.F.);
#473=CLOSED_SHELL('',(#166,#197,#237,#261,#294,#334,#356,#391,#422,#448,#460,#472));
#474=MANIFOLD_SOLID_BREP('245',#473);
#475=ADVANCED_BREP_SHAPE_REPRESENTATION('ABSR1',(#474),#28);
#476=SHAPE_REPRESENTATION_RELATIONSHIP('SRRPL1',' ',#475,#122);
ENDSEC;
END-ISO-10303-21;
