ISO-10303-21;
HEADER;
/****************************************************************
 * Generated by software with PDElib inside                    *
 * PDElib Version v51a, created Fri 09/10/2010                  *
 * ITI Transcendata (http://www.transcendata.com/)              *
 ****************************************************************/
FILE_DESCRIPTION((''),'2;1');
FILE_NAME('3d_GEX8900.stp','2012-10-03T11:04:06',(''),(''),'Mechanical Desktop 2011','Mechanical Desktop 2011',', , ');
FILE_SCHEMA(('CONFIG_CONTROL_DESIGN'));
ENDSEC;
DATA;
#10=(NAMED_UNIT(*)PLANE_ANGLE_UNIT()SI_UNIT($,.RADIAN.));
#11=DIMENSIONAL_EXPONENTS(0.0,0.0,0.0,0.0,0.0,0.0,0.0);
#12=PLANE_ANGLE_MEASURE_WITH_UNIT(PLANE_ANGLE_MEASURE(0.0174532925),#10);
#16=(CONVERSION_BASED_UNIT('DEGREE',#12)NAMED_UNIT(#11)PLANE_ANGLE_UNIT());
#20=(NAMED_UNIT(*)SI_UNIT($,.STERADIAN.)SOLID_ANGLE_UNIT());
#24=(LENGTH_UNIT()NAMED_UNIT(*)SI_UNIT(.MILLI.,.METRE.));
#26=UNCERTAINTY_MEASURE_WITH_UNIT(LENGTH_MEASURE(0.000001),#24,'DISTANCE_ACCURACY_VALUE','');
#28=(GEOMETRIC_REPRESENTATION_CONTEXT(3)GLOBAL_UNCERTAINTY_ASSIGNED_CONTEXT((#26))GLOBAL_UNIT_ASSIGNED_CONTEXT((#16,#20,#24))REPRESENTATION_CONTEXT('','3D'));
#29=APPLICATION_CONTEXT('CONFIGURATION CONTROLLED 3D DESIGNS OF MECHANICAL PARTS AND ASSEMBLIES');
#30=APPLICATION_PROTOCOL_DEFINITION('INTERNATIONAL STANDARD','config_control_design',1995,#29);
#31=MECHANICAL_CONTEXT('3D Mechanical Parts',#29,'mechanical');
#32=PRODUCT('Product','Product',' ',(#31));
#33=PRODUCT_RELATED_PRODUCT_CATEGORY('detail',$,(#32));
#34=PRODUCT_CATEGORY('part',$);
#35=PRODUCT_CATEGORY_RELATIONSHIP('None','None',#34,#33);
#36=PERSON('1','Design','Joe',$,$,$);
#37=ORGANIZATION($,'None','None');
#38=PERSON_AND_ORGANIZATION(#36,#37);
#39=PERSON_AND_ORGANIZATION_ROLE('design_owner');
#40=CC_DESIGN_PERSON_AND_ORGANIZATION_ASSIGNMENT(#38,#39,(#32));
#41=PRODUCT_DEFINITION_FORMATION_WITH_SPECIFIED_SOURCE('None','None',#32,.BOUGHT.);
#42=PERSON('2','Creator','Joe',$,$,$);
#43=ORGANIZATION($,'None','None');
#44=PERSON_AND_ORGANIZATION(#42,#43);
#45=PERSON_AND_ORGANIZATION_ROLE('creator');
#46=CC_DESIGN_PERSON_AND_ORGANIZATION_ASSIGNMENT(#44,#45,(#41));
#47=PERSON('3','Supplier','Joe',$,$,$);
#48=ORGANIZATION($,'None','None');
#49=PERSON_AND_ORGANIZATION(#47,#48);
#50=PERSON_AND_ORGANIZATION_ROLE('design_supplier');
#51=CC_DESIGN_PERSON_AND_ORGANIZATION_ASSIGNMENT(#49,#50,(#41));
#52=APPROVAL_STATUS('approved');
#53=APPROVAL(#52,'None');
#54=PERSON('4','Approver','Joe',$,$,$);
#55=ORGANIZATION($,'None','None');
#56=PERSON_AND_ORGANIZATION(#54,#55);
#57=APPROVAL_ROLE('approver');
#58=APPROVAL_PERSON_ORGANIZATION(#56,#53,#57);
#59=COORDINATED_UNIVERSAL_TIME_OFFSET(8,$,.EXACT.);
#60=CALENDAR_DATE(1996,29,5);
#61=LOCAL_TIME(12,0,0.0,#59);
#62=DATE_AND_TIME(#60,#61);
#63=APPROVAL_DATE_TIME(#62,#53);
#64=CC_DESIGN_APPROVAL(#53,(#41));
#65=SECURITY_CLASSIFICATION_LEVEL('unclassified');
#66=SECURITY_CLASSIFICATION('security','None',#65);
#67=CC_DESIGN_SECURITY_CLASSIFICATION(#66,(#41));
#68=APPROVAL_STATUS('approved');
#69=APPROVAL(#68,'None');
#70=PERSON('5','Approver','Joe',$,$,$);
#71=ORGANIZATION($,'None','None');
#72=PERSON_AND_ORGANIZATION(#70,#71);
#73=APPROVAL_ROLE('approver');
#74=APPROVAL_PERSON_ORGANIZATION(#72,#69,#73);
#75=COORDINATED_UNIVERSAL_TIME_OFFSET(8,$,.EXACT.);
#76=CALENDAR_DATE(1996,29,5);
#77=LOCAL_TIME(12,0,0.0,#75);
#78=DATE_AND_TIME(#76,#77);
#79=APPROVAL_DATE_TIME(#78,#69);
#80=CC_DESIGN_APPROVAL(#69,(#66));
#81=PERSON('6','Classifier','Joe',$,$,$);
#82=ORGANIZATION($,'None','None');
#83=PERSON_AND_ORGANIZATION(#81,#82);
#84=PERSON_AND_ORGANIZATION_ROLE('classification_officer');
#85=CC_DESIGN_PERSON_AND_ORGANIZATION_ASSIGNMENT(#83,#84,(#66));
#86=COORDINATED_UNIVERSAL_TIME_OFFSET(8,$,.EXACT.);
#87=CALENDAR_DATE(1996,29,5);
#88=LOCAL_TIME(12,0,0.0,#86);
#89=DATE_AND_TIME(#87,#88);
#90=DATE_TIME_ROLE('classification_date');
#91=CC_DESIGN_DATE_AND_TIME_ASSIGNMENT(#89,#90,(#66));
#92=DESIGN_CONTEXT('Design Context',#29,'design');
#93=PRODUCT_DEFINITION('None','None',#41,#92);
#94=PERSON('7','Creator','Joe',$,$,$);
#95=ORGANIZATION($,'None','None');
#96=PERSON_AND_ORGANIZATION(#94,#95);
#97=PERSON_AND_ORGANIZATION_ROLE('creator');
#98=CC_DESIGN_PERSON_AND_ORGANIZATION_ASSIGNMENT(#96,#97,(#93));
#99=COORDINATED_UNIVERSAL_TIME_OFFSET(8,$,.EXACT.);
#100=CALENDAR_DATE(1996,29,5);
#101=LOCAL_TIME(12,0,0.0,#99);
#102=DATE_AND_TIME(#100,#101);
#103=DATE_TIME_ROLE('creation_date');
#104=CC_DESIGN_DATE_AND_TIME_ASSIGNMENT(#102,#103,(#93));
#105=APPROVAL_STATUS('approved');
#106=APPROVAL(#105,'None');
#107=PERSON('8','Approver','Joe',$,$,$);
#108=ORGANIZATION($,'None','None');
#109=PERSON_AND_ORGANIZATION(#107,#108);
#110=APPROVAL_ROLE('approver');
#111=APPROVAL_PERSON_ORGANIZATION(#109,#106,#110);
#112=COORDINATED_UNIVERSAL_TIME_OFFSET(8,$,.EXACT.);
#113=CALENDAR_DATE(1996,29,5);
#114=LOCAL_TIME(12,0,0.0,#112);
#115=DATE_AND_TIME(#113,#114);
#116=APPROVAL_DATE_TIME(#115,#106);
#117=CC_DESIGN_APPROVAL(#106,(#93));
#118=CARTESIAN_POINT('NONE',(0.0,0.0,0.0));
#119=DIRECTION('NONE',(0.0,0.0,1.0));
#120=DIRECTION('NONE',(1.0,0.0,0.0));
#121=AXIS2_PLACEMENT_3D('NONE',#118,#119,#120);
#122=SHAPE_REPRESENTATION('SR1',(#121),#28);
#123=PRODUCT_DEFINITION_SHAPE('PDS1','Test Part',#93);
#124=SHAPE_DEFINITION_REPRESENTATION(#123,#122);
#125=CARTESIAN_POINT('',(0.0,-86.5,6.499999999999968));
#126=DIRECTION('',(0.0,-1.0,0.0));
#127=DIRECTION('',(-1.0,0.0,0.0));
#128=AXIS2_PLACEMENT_3D('',#125,#126,#127);
#129=PLANE('',#128);
#130=CARTESIAN_POINT('',(-3.0,-86.5,6.499999999999968));
#131=VERTEX_POINT('',#130);
#132=CARTESIAN_POINT('',(-3.0,-86.5,12.499999999999968));
#133=VERTEX_POINT('',#132);
#134=CARTESIAN_POINT('',(-3.0,-86.5,6.499999999999968));
#135=DIRECTION('',(0.0,0.0,1.0));
#136=VECTOR('',#135,6.0);
#137=LINE('',#134,#136);
#138=EDGE_CURVE('',#131,#133,#137,.T.);
#139=ORIENTED_EDGE('',*,*,#138,.T.);
#140=CARTESIAN_POINT('',(-9.0,-86.5,12.49999999999997));
#141=VERTEX_POINT('',#140);
#142=CARTESIAN_POINT('',(-3.0,-86.5,12.499999999999968));
#143=DIRECTION('',(-1.0,0.0,0.0));
#144=VECTOR('',#143,6.0);
#145=LINE('',#142,#144);
#146=EDGE_CURVE('',#133,#141,#145,.T.);
#147=ORIENTED_EDGE('',*,*,#146,.T.);
#148=CARTESIAN_POINT('',(-9.0,-86.5,6.49999999999997));
#149=VERTEX_POINT('',#148);
#150=CARTESIAN_POINT('',(-9.0,-86.5,12.49999999999997));
#151=DIRECTION('',(0.0,0.0,-1.0));
#152=VECTOR('',#151,6.0);
#153=LINE('',#150,#152);
#154=EDGE_CURVE('',#141,#149,#153,.T.);
#155=ORIENTED_EDGE('',*,*,#154,.T.);
#156=CARTESIAN_POINT('',(-9.0,-86.5,6.49999999999997));
#157=DIRECTION('',(1.0,0.0,0.0));
#158=VECTOR('',#157,6.0);
#159=LINE('',#156,#158);
#160=EDGE_CURVE('',#149,#131,#159,.T.);
#161=ORIENTED_EDGE('',*,*,#160,.T.);
#162=EDGE_LOOP('',(#139,#147,#155,#161));
#163=FACE_OUTER_BOUND('',#162,.T.);
#164=ADVANCED_FACE('',(#163),#129,.T.);
#165=CARTESIAN_POINT('',(0.0,-86.5,6.499999999999968));
#166=DIRECTION('',(0.0,-1.0,0.0));
#167=DIRECTION('',(-1.0,0.0,0.0));
#168=AXIS2_PLACEMENT_3D('',#165,#166,#167);
#169=PLANE('',#168);
#170=CARTESIAN_POINT('',(3.0,-86.5,12.499999999999966));
#171=VERTEX_POINT('',#170);
#172=CARTESIAN_POINT('',(3.0,-86.5,6.499999999999968));
#173=VERTEX_POINT('',#172);
#174=CARTESIAN_POINT('',(3.000000000000001,-86.5,12.499999999999966));
#175=DIRECTION('',(0.0,0.0,-1.0));
#176=VECTOR('',#175,5.999999999999998);
#177=LINE('',#174,#176);
#178=EDGE_CURVE('',#171,#173,#177,.T.);
#179=ORIENTED_EDGE('',*,*,#178,.T.);
#180=CARTESIAN_POINT('',(9.0,-86.5,6.499999999999966));
#181=VERTEX_POINT('',#180);
#182=CARTESIAN_POINT('',(3.0,-86.5,6.499999999999967));
#183=DIRECTION('',(1.0,0.0,0.0));
#184=VECTOR('',#183,6.0);
#185=LINE('',#182,#184);
#186=EDGE_CURVE('',#173,#181,#185,.T.);
#187=ORIENTED_EDGE('',*,*,#186,.T.);
#188=CARTESIAN_POINT('',(9.0,-86.5,12.499999999999966));
#189=VERTEX_POINT('',#188);
#190=CARTESIAN_POINT('',(8.999999999999998,-86.5,6.499999999999966));
#191=DIRECTION('',(0.0,0.0,1.0));
#192=VECTOR('',#191,6.0);
#193=LINE('',#190,#192);
#194=EDGE_CURVE('',#181,#189,#193,.T.);
#195=ORIENTED_EDGE('',*,*,#194,.T.);
#196=CARTESIAN_POINT('',(9.0,-86.5,12.499999999999966));
#197=DIRECTION('',(-1.0,0.0,0.0));
#198=VECTOR('',#197,6.0);
#199=LINE('',#196,#198);
#200=EDGE_CURVE('',#189,#171,#199,.T.);
#201=ORIENTED_EDGE('',*,*,#200,.T.);
#202=EDGE_LOOP('',(#179,#187,#195,#201));
#203=FACE_OUTER_BOUND('',#202,.T.);
#204=ADVANCED_FACE('',(#203),#169,.T.);
#205=CARTESIAN_POINT('',(-9.0,-42.330128916865306,7.169871083134673));
#206=DIRECTION('',(1.0,0.0,0.0));
#207=DIRECTION('',(0.0,0.0,-1.0));
#208=AXIS2_PLACEMENT_3D('',#205,#206,#207);
#209=PLANE('',#208);
#210=CARTESIAN_POINT('',(-9.0,-35.0,6.499999999999978));
#211=VERTEX_POINT('',#210);
#212=CARTESIAN_POINT('',(-9.0,-86.5,6.49999999999997));
#213=DIRECTION('',(0.0,1.0,0.0));
#214=VECTOR('',#213,51.5);
#215=LINE('',#212,#214);
#216=EDGE_CURVE('',#149,#211,#215,.T.);
#217=ORIENTED_EDGE('',*,*,#216,.F.);
#218=ORIENTED_EDGE('',*,*,#154,.F.);
#219=CARTESIAN_POINT('',(-9.0,-29.000000000000007,12.499999999999988));
#220=VERTEX_POINT('',#219);
#221=CARTESIAN_POINT('',(-9.0,-29.000000000000007,12.499999999999988));
#222=DIRECTION('',(0.0,-1.0,0.0));
#223=VECTOR('',#222,57.499999999999993);
#224=LINE('',#221,#223);
#225=EDGE_CURVE('',#220,#141,#224,.T.);
#226=ORIENTED_EDGE('',*,*,#225,.F.);
#227=CARTESIAN_POINT('',(-9.0,-29.000000000000007,7.237395671057541));
#228=VERTEX_POINT('',#227);
#229=CARTESIAN_POINT('',(-9.0,-29.000000000000007,7.237395671057541));
#230=DIRECTION('',(0.0,0.0,1.0));
#231=VECTOR('',#230,5.262604328942446);
#232=LINE('',#229,#231);
#233=EDGE_CURVE('',#228,#220,#232,.T.);
#234=ORIENTED_EDGE('',*,*,#233,.F.);
#235=CARTESIAN_POINT('',(-9.0,2.842171E-014,7.237395671057541));
#236=VERTEX_POINT('',#235);
#237=CARTESIAN_POINT('',(-9.0,2.842171E-014,7.237395671057541));
#238=DIRECTION('',(0.0,-1.0,0.0));
#239=VECTOR('',#238,29.000000000000028);
#240=LINE('',#237,#239);
#241=EDGE_CURVE('',#236,#228,#240,.T.);
#242=ORIENTED_EDGE('',*,*,#241,.F.);
#243=CARTESIAN_POINT('',(-9.000000000000004,0.0,1.776357E-015));
#244=VERTEX_POINT('',#243);
#245=CARTESIAN_POINT('',(-9.000000000000004,0.0,1.776357E-015));
#246=DIRECTION('',(0.0,0.0,1.0));
#247=VECTOR('',#246,7.23739567105754);
#248=LINE('',#245,#247);
#249=EDGE_CURVE('',#244,#236,#248,.T.);
#250=ORIENTED_EDGE('',*,*,#249,.F.);
#251=CARTESIAN_POINT('',(-9.000000000000004,-35.0,-1.421085E-014));
#252=VERTEX_POINT('',#251);
#253=CARTESIAN_POINT('',(-9.000000000000004,-35.0,-1.421085E-014));
#254=DIRECTION('',(0.0,1.0,0.0));
#255=VECTOR('',#254,35.0);
#256=LINE('',#253,#255);
#257=EDGE_CURVE('',#252,#244,#256,.T.);
#258=ORIENTED_EDGE('',*,*,#257,.F.);
#259=CARTESIAN_POINT('',(-9.0,-35.0,6.499999999999978));
#260=DIRECTION('',(0.0,0.0,-1.0));
#261=VECTOR('',#260,6.499999999999993);
#262=LINE('',#259,#261);
#263=EDGE_CURVE('',#211,#252,#262,.T.);
#264=ORIENTED_EDGE('',*,*,#263,.F.);
#265=EDGE_LOOP('',(#217,#218,#226,#234,#242,#250,#258,#264));
#266=FACE_OUTER_BOUND('',#265,.T.);
#267=ADVANCED_FACE('',(#266),#209,.F.);
#268=CARTESIAN_POINT('',(0.0,-29.000000000000007,12.499999999999986));
#269=DIRECTION('',(0.0,1.0,0.0));
#270=DIRECTION('',(1.0,0.0,0.0));
#271=AXIS2_PLACEMENT_3D('',#268,#269,#270);
#272=PLANE('',#271);
#273=CARTESIAN_POINT('',(9.0,-29.000000000000007,12.499999999999984));
#274=VERTEX_POINT('',#273);
#275=CARTESIAN_POINT('',(9.0,-29.000000000000007,7.237395671057538));
#276=VERTEX_POINT('',#275);
#277=CARTESIAN_POINT('',(9.000000000000002,-29.000000000000007,12.499999999999984));
#278=DIRECTION('',(0.0,0.0,-1.0));
#279=VECTOR('',#278,5.262604328942446);
#280=LINE('',#277,#279);
#281=EDGE_CURVE('',#274,#276,#280,.T.);
#282=ORIENTED_EDGE('',*,*,#281,.T.);
#283=CARTESIAN_POINT('',(-9.0,-29.000000000000007,7.237395671057541));
#284=DIRECTION('',(1.0,0.0,0.0));
#285=VECTOR('',#284,18.0);
#286=LINE('',#283,#285);
#287=EDGE_CURVE('',#228,#276,#286,.T.);
#288=ORIENTED_EDGE('',*,*,#287,.F.);
#289=ORIENTED_EDGE('',*,*,#233,.T.);
#290=CARTESIAN_POINT('',(-9.0,-29.000000000000007,12.499999999999988));
#291=DIRECTION('',(1.0,0.0,0.0));
#292=VECTOR('',#291,18.0);
#293=LINE('',#290,#292);
#294=EDGE_CURVE('',#220,#274,#293,.T.);
#295=ORIENTED_EDGE('',*,*,#294,.T.);
#296=EDGE_LOOP('',(#282,#288,#289,#295));
#297=FACE_OUTER_BOUND('',#296,.T.);
#298=ADVANCED_FACE('',(#297),#272,.T.);
#299=CARTESIAN_POINT('',(0.0,-29.000000000000007,7.23739567105754));
#300=DIRECTION('',(0.0,0.0,1.0));
#301=DIRECTION('',(1.0,0.0,0.0));
#302=AXIS2_PLACEMENT_3D('',#299,#300,#301);
#303=PLANE('',#302);
#304=CARTESIAN_POINT('',(9.0,2.842171E-014,7.237395671057538));
#305=VERTEX_POINT('',#304);
#306=CARTESIAN_POINT('',(9.0,-29.0,7.237395671057538));
#307=DIRECTION('',(0.0,1.0,0.0));
#308=VECTOR('',#307,29.000000000000028);
#309=LINE('',#306,#308);
#310=EDGE_CURVE('',#276,#305,#309,.T.);
#311=ORIENTED_EDGE('',*,*,#310,.T.);
#312=CARTESIAN_POINT('',(-9.0,2.842171E-014,7.237395671057541));
#313=DIRECTION('',(1.0,0.0,0.0));
#314=VECTOR('',#313,18.0);
#315=LINE('',#312,#314);
#316=EDGE_CURVE('',#236,#305,#315,.T.);
#317=ORIENTED_EDGE('',*,*,#316,.F.);
#318=ORIENTED_EDGE('',*,*,#241,.T.);
#319=ORIENTED_EDGE('',*,*,#287,.T.);
#320=EDGE_LOOP('',(#311,#317,#318,#319));
#321=FACE_OUTER_BOUND('',#320,.T.);
#322=ADVANCED_FACE('',(#321),#303,.T.);
#323=CARTESIAN_POINT('',(0.0,2.842171E-014,7.23739567105754));
#324=DIRECTION('',(0.0,1.0,0.0));
#325=DIRECTION('',(1.0,0.0,0.0));
#326=AXIS2_PLACEMENT_3D('',#323,#324,#325);
#327=PLANE('',#326);
#328=CARTESIAN_POINT('',(9.0,0.0,-1.776357E-015));
#329=VERTEX_POINT('',#328);
#330=CARTESIAN_POINT('',(9.000000000000002,1.776357E-014,7.237395671057538));
#331=DIRECTION('',(0.0,0.0,-1.0));
#332=VECTOR('',#331,7.23739567105754);
#333=LINE('',#330,#332);
#334=EDGE_CURVE('',#305,#329,#333,.T.);
#335=ORIENTED_EDGE('',*,*,#334,.T.);
#336=CARTESIAN_POINT('',(-9.000000000000004,0.0,1.653219E-015));
#337=DIRECTION('',(1.0,0.0,0.0));
#338=VECTOR('',#337,18.000000000000004);
#339=LINE('',#336,#338);
#340=EDGE_CURVE('',#244,#329,#339,.T.);
#341=ORIENTED_EDGE('',*,*,#340,.F.);
#342=ORIENTED_EDGE('',*,*,#249,.T.);
#343=ORIENTED_EDGE('',*,*,#316,.T.);
#344=EDGE_LOOP('',(#335,#341,#342,#343));
#345=FACE_OUTER_BOUND('',#344,.T.);
#346=ADVANCED_FACE('',(#345),#327,.T.);
#347=CARTESIAN_POINT('',(-7.105427E-015,0.0,0.0));
#348=DIRECTION('',(0.0,0.0,-1.0));
#349=DIRECTION('',(-1.0,0.0,0.0));
#350=AXIS2_PLACEMENT_3D('',#347,#348,#349);
#351=PLANE('',#350);
#352=CARTESIAN_POINT('',(9.0,-35.0,-1.776357E-014));
#353=VERTEX_POINT('',#352);
#354=CARTESIAN_POINT('',(9.0,0.0,-2.220446E-015));
#355=DIRECTION('',(0.0,-1.0,0.0));
#356=VECTOR('',#355,35.0);
#357=LINE('',#354,#356);
#358=EDGE_CURVE('',#329,#353,#357,.T.);
#359=ORIENTED_EDGE('',*,*,#358,.T.);
#360=CARTESIAN_POINT('',(-9.000000000000004,-35.0,-1.433399E-014));
#361=DIRECTION('',(1.0,0.0,0.0));
#362=VECTOR('',#361,18.000000000000004);
#363=LINE('',#360,#362);
#364=EDGE_CURVE('',#252,#353,#363,.T.);
#365=ORIENTED_EDGE('',*,*,#364,.F.);
#366=ORIENTED_EDGE('',*,*,#257,.T.);
#367=ORIENTED_EDGE('',*,*,#340,.T.);
#368=EDGE_LOOP('',(#359,#365,#366,#367));
#369=FACE_OUTER_BOUND('',#368,.T.);
#370=ADVANCED_FACE('',(#369),#351,.T.);
#371=CARTESIAN_POINT('',(-7.105427E-015,-35.0,-1.598721E-014));
#372=DIRECTION('',(0.0,-1.0,0.0));
#373=DIRECTION('',(-1.0,0.0,0.0));
#374=AXIS2_PLACEMENT_3D('',#371,#372,#373);
#375=PLANE('',#374);
#376=CARTESIAN_POINT('',(9.0,-35.0,6.499999999999974));
#377=VERTEX_POINT('',#376);
#378=CARTESIAN_POINT('',(8.999999999999998,-35.0,-1.865175E-014));
#379=DIRECTION('',(0.0,0.0,1.0));
#380=VECTOR('',#379,6.499999999999993);
#381=LINE('',#378,#380);
#382=EDGE_CURVE('',#353,#377,#381,.T.);
#383=ORIENTED_EDGE('',*,*,#382,.T.);
#384=CARTESIAN_POINT('',(-9.0,-35.0,6.499999999999978));
#385=DIRECTION('',(1.0,0.0,0.0));
#386=VECTOR('',#385,18.0);
#387=LINE('',#384,#386);
#388=EDGE_CURVE('',#211,#377,#387,.T.);
#389=ORIENTED_EDGE('',*,*,#388,.F.);
#390=ORIENTED_EDGE('',*,*,#263,.T.);
#391=ORIENTED_EDGE('',*,*,#364,.T.);
#392=EDGE_LOOP('',(#383,#389,#390,#391));
#393=FACE_OUTER_BOUND('',#392,.T.);
#394=ADVANCED_FACE('',(#393),#375,.T.);
#395=CARTESIAN_POINT('',(9.0,-42.330128916865299,7.16987108313467));
#396=DIRECTION('',(1.0,0.0,0.0));
#397=DIRECTION('',(0.0,0.0,-1.0));
#398=AXIS2_PLACEMENT_3D('',#395,#396,#397);
#399=PLANE('',#398);
#400=CARTESIAN_POINT('',(9.0,-86.5,12.499999999999966));
#401=DIRECTION('',(0.0,1.0,0.0));
#402=VECTOR('',#401,57.499999999999993);
#403=LINE('',#400,#402);
#404=EDGE_CURVE('',#189,#274,#403,.T.);
#405=ORIENTED_EDGE('',*,*,#404,.F.);
#406=ORIENTED_EDGE('',*,*,#194,.F.);
#407=CARTESIAN_POINT('',(9.0,-35.0,6.499999999999974));
#408=DIRECTION('',(0.0,-1.0,0.0));
#409=VECTOR('',#408,51.5);
#410=LINE('',#407,#409);
#411=EDGE_CURVE('',#377,#181,#410,.T.);
#412=ORIENTED_EDGE('',*,*,#411,.F.);
#413=ORIENTED_EDGE('',*,*,#382,.F.);
#414=ORIENTED_EDGE('',*,*,#358,.F.);
#415=ORIENTED_EDGE('',*,*,#334,.F.);
#416=ORIENTED_EDGE('',*,*,#310,.F.);
#417=ORIENTED_EDGE('',*,*,#281,.F.);
#418=EDGE_LOOP('',(#405,#406,#412,#413,#414,#415,#416,#417));
#419=FACE_OUTER_BOUND('',#418,.T.);
#420=ADVANCED_FACE('',(#419),#399,.T.);
#421=CARTESIAN_POINT('',(-3.0,-90.200000000000003,9.499999999999968));
#422=DIRECTION('',(1.0,0.0,0.0));
#423=DIRECTION('',(0.0,0.0,-1.0));
#424=AXIS2_PLACEMENT_3D('',#421,#422,#423);
#425=PLANE('',#424);
#426=CARTESIAN_POINT('',(-3.0,-93.900000000000006,12.499999999999966));
#427=VERTEX_POINT('',#426);
#428=CARTESIAN_POINT('',(-3.0,-93.900000000000006,6.499999999999967));
#429=VERTEX_POINT('',#428);
#430=CARTESIAN_POINT('',(-3.0,-93.900000000000006,12.499999999999966));
#431=DIRECTION('',(0.0,0.0,-1.0));
#432=VECTOR('',#431,5.999999999999998);
#433=LINE('',#430,#432);
#434=EDGE_CURVE('',#427,#429,#433,.T.);
#435=ORIENTED_EDGE('',*,*,#434,.F.);
#436=CARTESIAN_POINT('',(-3.0,-86.5,12.499999999999968));
#437=DIRECTION('',(0.0,-1.0,0.0));
#438=VECTOR('',#437,7.400000000000006);
#439=LINE('',#436,#438);
#440=EDGE_CURVE('',#133,#427,#439,.T.);
#441=ORIENTED_EDGE('',*,*,#440,.F.);
#442=ORIENTED_EDGE('',*,*,#138,.F.);
#443=CARTESIAN_POINT('',(-3.0,-93.900000000000006,6.499999999999967));
#444=DIRECTION('',(0.0,1.0,0.0));
#445=VECTOR('',#444,7.400000000000006);
#446=LINE('',#443,#445);
#447=EDGE_CURVE('',#429,#131,#446,.T.);
#448=ORIENTED_EDGE('',*,*,#447,.F.);
#449=EDGE_LOOP('',(#435,#441,#442,#448));
#450=FACE_OUTER_BOUND('',#449,.T.);
#451=ADVANCED_FACE('',(#450),#425,.F.);
#452=CARTESIAN_POINT('',(0.0,-86.5,6.499999999999968));
#453=DIRECTION('',(0.0,0.0,-1.0));
#454=DIRECTION('',(-1.0,0.0,0.0));
#455=AXIS2_PLACEMENT_3D('',#452,#453,#454);
#456=PLANE('',#455);
#457=CARTESIAN_POINT('',(3.0,-93.900000000000006,6.499999999999967));
#458=VERTEX_POINT('',#457);
#459=CARTESIAN_POINT('',(3.0,-86.5,6.499999999999968));
#460=DIRECTION('',(0.0,-1.0,0.0));
#461=VECTOR('',#460,7.400000000000006);
#462=LINE('',#459,#461);
#463=EDGE_CURVE('',#173,#458,#462,.T.);
#464=ORIENTED_EDGE('',*,*,#463,.T.);
#465=CARTESIAN_POINT('',(-3.0,-93.900000000000006,6.499999999999968));
#466=DIRECTION('',(1.0,0.0,0.0));
#467=VECTOR('',#466,6.0);
#468=LINE('',#465,#467);
#469=EDGE_CURVE('',#429,#458,#468,.T.);
#470=ORIENTED_EDGE('',*,*,#469,.F.);
#471=ORIENTED_EDGE('',*,*,#447,.T.);
#472=ORIENTED_EDGE('',*,*,#160,.F.);
#473=ORIENTED_EDGE('',*,*,#216,.T.);
#474=ORIENTED_EDGE('',*,*,#388,.T.);
#475=ORIENTED_EDGE('',*,*,#411,.T.);
#476=ORIENTED_EDGE('',*,*,#186,.F.);
#477=EDGE_LOOP('',(#464,#470,#471,#472,#473,#474,#475,#476));
#478=FACE_OUTER_BOUND('',#477,.T.);
#479=ADVANCED_FACE('',(#478),#456,.T.);
#480=CARTESIAN_POINT('',(0.0,-93.900000000000006,6.499999999999967));
#481=DIRECTION('',(0.0,-1.0,0.0));
#482=DIRECTION('',(-1.0,0.0,0.0));
#483=AXIS2_PLACEMENT_3D('',#480,#481,#482);
#484=PLANE('',#483);
#485=CARTESIAN_POINT('',(3.0,-93.900000000000006,12.499999999999964));
#486=VERTEX_POINT('',#485);
#487=CARTESIAN_POINT('',(2.999999999999999,-93.900000000000006,6.499999999999967));
#488=DIRECTION('',(0.0,0.0,1.0));
#489=VECTOR('',#488,5.999999999999997);
#490=LINE('',#487,#489);
#491=EDGE_CURVE('',#458,#486,#490,.T.);
#492=ORIENTED_EDGE('',*,*,#491,.T.);
#493=CARTESIAN_POINT('',(-3.0,-93.900000000000006,12.499999999999966));
#494=DIRECTION('',(1.0,0.0,0.0));
#495=VECTOR('',#494,6.0);
#496=LINE('',#493,#495);
#497=EDGE_CURVE('',#427,#486,#496,.T.);
#498=ORIENTED_EDGE('',*,*,#497,.F.);
#499=ORIENTED_EDGE('',*,*,#434,.T.);
#500=ORIENTED_EDGE('',*,*,#469,.T.);
#501=EDGE_LOOP('',(#492,#498,#499,#500));
#502=FACE_OUTER_BOUND('',#501,.T.);
#503=ADVANCED_FACE('',(#502),#484,.T.);
#504=CARTESIAN_POINT('',(0.0,-93.900000000000006,12.499999999999966));
#505=DIRECTION('',(0.0,0.0,1.0));
#506=DIRECTION('',(1.0,0.0,0.0));
#507=AXIS2_PLACEMENT_3D('',#504,#505,#506);
#508=PLANE('',#507);
#509=CARTESIAN_POINT('',(3.0,-93.900000000000006,12.499999999999964));
#510=DIRECTION('',(0.0,1.0,0.0));
#511=VECTOR('',#510,7.400000000000006);
#512=LINE('',#509,#511);
#513=EDGE_CURVE('',#486,#171,#512,.T.);
#514=ORIENTED_EDGE('',*,*,#513,.T.);
#515=ORIENTED_EDGE('',*,*,#200,.F.);
#516=ORIENTED_EDGE('',*,*,#404,.T.);
#517=ORIENTED_EDGE('',*,*,#294,.F.);
#518=ORIENTED_EDGE('',*,*,#225,.T.);
#519=ORIENTED_EDGE('',*,*,#146,.F.);
#520=ORIENTED_EDGE('',*,*,#440,.T.);
#521=ORIENTED_EDGE('',*,*,#497,.T.);
#522=EDGE_LOOP('',(#514,#515,#516,#517,#518,#519,#520,#521));
#523=FACE_OUTER_BOUND('',#522,.T.);
#524=ADVANCED_FACE('',(#523),#508,.T.);
#525=CARTESIAN_POINT('',(3.0,-90.200000000000003,9.499999999999968));
#526=DIRECTION('',(1.0,0.0,0.0));
#527=DIRECTION('',(0.0,0.0,-1.0));
#528=AXIS2_PLACEMENT_3D('',#525,#526,#527);
#529=PLANE('',#528);
#530=ORIENTED_EDGE('',*,*,#178,.F.);
#531=ORIENTED_EDGE('',*,*,#513,.F.);
#532=ORIENTED_EDGE('',*,*,#491,.F.);
#533=ORIENTED_EDGE('',*,*,#463,.F.);
#534=EDGE_LOOP('',(#530,#531,#532,#533));
#535=FACE_OUTER_BOUND('',#534,.T.);
#536=ADVANCED_FACE('',(#535),#529,.T.);
#537=CLOSED_SHELL('',(#164,#204,#267,#298,#322,#346,#370,#394,#420,#451,#479,#503,#524,#536));
#538=MANIFOLD_SOLID_BREP('18BF7',#537);
#539=ADVANCED_BREP_SHAPE_REPRESENTATION('ABSR1',(#538),#28);
#540=SHAPE_REPRESENTATION_RELATIONSHIP('SRRPL1','',#539,#122);
ENDSEC;
END-ISO-10303-21;
