ISO-10303-21;
HEADER;
/****************************************************************
 * Generated by software with PDElib inside                    *
 * PDElib Version v51a, created Fri 09/10/2010                  *
 * ITI Transcendata (http://www.transcendata.com/)              *
 ****************************************************************/
FILE_DESCRIPTION((''),'2;1');
FILE_NAME('3d_GEX8221.stp','2012-10-03T11:04:04',(''),(''),'Mechanical Desktop 2011','Mechanical Desktop 2011',', , ');
FILE_SCHEMA(('CONFIG_CONTROL_DESIGN'));
ENDSEC;
DATA;
#10=(NAMED_UNIT(*)PLANE_ANGLE_UNIT()SI_UNIT($,.RADIAN.));
#11=DIMENSIONAL_EXPONENTS(0.0,0.0,0.0,0.0,0.0,0.0,0.0);
#12=PLANE_ANGLE_MEASURE_WITH_UNIT(PLANE_ANGLE_MEASURE(0.0174532925),#10);
#16=(CONVERSION_BASED_UNIT('DEGREE',#12)NAMED_UNIT(#11)PLANE_ANGLE_UNIT());
#20=(NAMED_UNIT(*)SI_UNIT($,.STERADIAN.)SOLID_ANGLE_UNIT());
#24=(LENGTH_UNIT()NAMED_UNIT(*)SI_UNIT(.MILLI.,.METRE.));
#26=UNCERTAINTY_MEASURE_WITH_UNIT(LENGTH_MEASURE(0.000001),#24,'DISTANCE_ACCURACY_VALUE','');
#28=(GEOMETRIC_REPRESENTATION_CONTEXT(3)GLOBAL_UNCERTAINTY_ASSIGNED_CONTEXT((#26))GLOBAL_UNIT_ASSIGNED_CONTEXT((#16,#20,#24))REPRESENTATION_CONTEXT('','3D'));
#29=APPLICATION_CONTEXT('CONFIGURATION CONTROLLED 3D DESIGNS OF MECHANICAL PARTS AND ASSEMBLIES');
#30=APPLICATION_PROTOCOL_DEFINITION('INTERNATIONAL STANDARD','config_control_design',1995,#29);
#31=MECHANICAL_CONTEXT('3D Mechanical Parts',#29,'mechanical');
#32=PRODUCT('Product','Product',' ',(#31));
#33=PRODUCT_RELATED_PRODUCT_CATEGORY('detail',$,(#32));
#34=PRODUCT_CATEGORY('part',$);
#35=PRODUCT_CATEGORY_RELATIONSHIP('None','None',#34,#33);
#36=PERSON('1','Design','Joe',$,$,$);
#37=ORGANIZATION($,'None','None');
#38=PERSON_AND_ORGANIZATION(#36,#37);
#39=PERSON_AND_ORGANIZATION_ROLE('design_owner');
#40=CC_DESIGN_PERSON_AND_ORGANIZATION_ASSIGNMENT(#38,#39,(#32));
#41=PRODUCT_DEFINITION_FORMATION_WITH_SPECIFIED_SOURCE('None','None',#32,.BOUGHT.);
#42=PERSON('2','Creator','Joe',$,$,$);
#43=ORGANIZATION($,'None','None');
#44=PERSON_AND_ORGANIZATION(#42,#43);
#45=PERSON_AND_ORGANIZATION_ROLE('creator');
#46=CC_DESIGN_PERSON_AND_ORGANIZATION_ASSIGNMENT(#44,#45,(#41));
#47=PERSON('3','Supplier','Joe',$,$,$);
#48=ORGANIZATION($,'None','None');
#49=PERSON_AND_ORGANIZATION(#47,#48);
#50=PERSON_AND_ORGANIZATION_ROLE('design_supplier');
#51=CC_DESIGN_PERSON_AND_ORGANIZATION_ASSIGNMENT(#49,#50,(#41));
#52=APPROVAL_STATUS('approved');
#53=APPROVAL(#52,'None');
#54=PERSON('4','Approver','Joe',$,$,$);
#55=ORGANIZATION($,'None','None');
#56=PERSON_AND_ORGANIZATION(#54,#55);
#57=APPROVAL_ROLE('approver');
#58=APPROVAL_PERSON_ORGANIZATION(#56,#53,#57);
#59=COORDINATED_UNIVERSAL_TIME_OFFSET(8,$,.EXACT.);
#60=CALENDAR_DATE(1996,29,5);
#61=LOCAL_TIME(12,0,0.0,#59);
#62=DATE_AND_TIME(#60,#61);
#63=APPROVAL_DATE_TIME(#62,#53);
#64=CC_DESIGN_APPROVAL(#53,(#41));
#65=SECURITY_CLASSIFICATION_LEVEL('unclassified');
#66=SECURITY_CLASSIFICATION('security','None',#65);
#67=CC_DESIGN_SECURITY_CLASSIFICATION(#66,(#41));
#68=APPROVAL_STATUS('approved');
#69=APPROVAL(#68,'None');
#70=PERSON('5','Approver','Joe',$,$,$);
#71=ORGANIZATION($,'None','None');
#72=PERSON_AND_ORGANIZATION(#70,#71);
#73=APPROVAL_ROLE('approver');
#74=APPROVAL_PERSON_ORGANIZATION(#72,#69,#73);
#75=COORDINATED_UNIVERSAL_TIME_OFFSET(8,$,.EXACT.);
#76=CALENDAR_DATE(1996,29,5);
#77=LOCAL_TIME(12,0,0.0,#75);
#78=DATE_AND_TIME(#76,#77);
#79=APPROVAL_DATE_TIME(#78,#69);
#80=CC_DESIGN_APPROVAL(#69,(#66));
#81=PERSON('6','Classifier','Joe',$,$,$);
#82=ORGANIZATION($,'None','None');
#83=PERSON_AND_ORGANIZATION(#81,#82);
#84=PERSON_AND_ORGANIZATION_ROLE('classification_officer');
#85=CC_DESIGN_PERSON_AND_ORGANIZATION_ASSIGNMENT(#83,#84,(#66));
#86=COORDINATED_UNIVERSAL_TIME_OFFSET(8,$,.EXACT.);
#87=CALENDAR_DATE(1996,29,5);
#88=LOCAL_TIME(12,0,0.0,#86);
#89=DATE_AND_TIME(#87,#88);
#90=DATE_TIME_ROLE('classification_date');
#91=CC_DESIGN_DATE_AND_TIME_ASSIGNMENT(#89,#90,(#66));
#92=DESIGN_CONTEXT('Design Context',#29,'design');
#93=PRODUCT_DEFINITION('None','None',#41,#92);
#94=PERSON('7','Creator','Joe',$,$,$);
#95=ORGANIZATION($,'None','None');
#96=PERSON_AND_ORGANIZATION(#94,#95);
#97=PERSON_AND_ORGANIZATION_ROLE('creator');
#98=CC_DESIGN_PERSON_AND_ORGANIZATION_ASSIGNMENT(#96,#97,(#93));
#99=COORDINATED_UNIVERSAL_TIME_OFFSET(8,$,.EXACT.);
#100=CALENDAR_DATE(1996,29,5);
#101=LOCAL_TIME(12,0,0.0,#99);
#102=DATE_AND_TIME(#100,#101);
#103=DATE_TIME_ROLE('creation_date');
#104=CC_DESIGN_DATE_AND_TIME_ASSIGNMENT(#102,#103,(#93));
#105=APPROVAL_STATUS('approved');
#106=APPROVAL(#105,'None');
#107=PERSON('8','Approver','Joe',$,$,$);
#108=ORGANIZATION($,'None','None');
#109=PERSON_AND_ORGANIZATION(#107,#108);
#110=APPROVAL_ROLE('approver');
#111=APPROVAL_PERSON_ORGANIZATION(#109,#106,#110);
#112=COORDINATED_UNIVERSAL_TIME_OFFSET(8,$,.EXACT.);
#113=CALENDAR_DATE(1996,29,5);
#114=LOCAL_TIME(12,0,0.0,#112);
#115=DATE_AND_TIME(#113,#114);
#116=APPROVAL_DATE_TIME(#115,#106);
#117=CC_DESIGN_APPROVAL(#106,(#93));
#118=CARTESIAN_POINT('NONE',(0.0,0.0,0.0));
#119=DIRECTION('NONE',(0.0,0.0,1.0));
#120=DIRECTION('NONE',(1.0,0.0,0.0));
#121=AXIS2_PLACEMENT_3D('NONE',#118,#119,#120);
#122=SHAPE_REPRESENTATION('SR1',(#121),#28);
#123=PRODUCT_DEFINITION_SHAPE('PDS1','Test Part',#93);
#124=SHAPE_DEFINITION_REPRESENTATION(#123,#122);
#125=CARTESIAN_POINT('',(11.938289388018291,116.50003797743051,1.0));
#126=DIRECTION('',(0.0,1.0,0.0));
#127=DIRECTION('',(0.0,0.0,1.0));
#128=AXIS2_PLACEMENT_3D('',#125,#126,#127);
#129=PLANE('',#128);
#130=CARTESIAN_POINT('',(11.938289388018291,116.50003797743051,0.5));
#131=VERTEX_POINT('',#130);
#132=CARTESIAN_POINT('',(-11.956345861690039,116.50003797743051,0.5));
#133=VERTEX_POINT('',#132);
#134=CARTESIAN_POINT('',(11.938289388018291,116.50003797743051,0.5));
#135=DIRECTION('',(-1.0,0.0,0.0));
#136=VECTOR('',#135,23.89463524970833);
#137=LINE('',#134,#136);
#138=EDGE_CURVE('',#131,#133,#137,.T.);
#139=ORIENTED_EDGE('',*,*,#138,.F.);
#140=CARTESIAN_POINT('',(11.938289388018291,116.50003797743051,1.0));
#141=VERTEX_POINT('',#140);
#142=CARTESIAN_POINT('',(11.938289388018291,116.50003797743051,1.0));
#143=DIRECTION('',(0.0,0.0,-1.0));
#144=VECTOR('',#143,0.5);
#145=LINE('',#142,#144);
#146=EDGE_CURVE('',#141,#131,#145,.T.);
#147=ORIENTED_EDGE('',*,*,#146,.F.);
#148=CARTESIAN_POINT('',(-11.956345861690039,116.50003797743051,1.0));
#149=VERTEX_POINT('',#148);
#150=CARTESIAN_POINT('',(-11.956345861690039,116.50003797743051,1.0));
#151=DIRECTION('',(1.0,0.0,0.0));
#152=VECTOR('',#151,23.89463524970833);
#153=LINE('',#150,#152);
#154=EDGE_CURVE('',#149,#141,#153,.T.);
#155=ORIENTED_EDGE('',*,*,#154,.F.);
#156=CARTESIAN_POINT('',(-11.956345861690039,116.50003797743051,1.0));
#157=DIRECTION('',(0.0,0.0,-1.0));
#158=VECTOR('',#157,0.5);
#159=LINE('',#156,#158);
#160=EDGE_CURVE('',#149,#133,#159,.T.);
#161=ORIENTED_EDGE('',*,*,#160,.T.);
#162=EDGE_LOOP('',(#139,#147,#155,#161));
#163=FACE_OUTER_BOUND('',#162,.T.);
#164=ADVANCED_FACE('',(#163),#129,.F.);
#165=CARTESIAN_POINT('',(-11.938664842476072,115.44084844751723,1.0));
#166=DIRECTION('',(0.0,0.0,-1.0));
#167=DIRECTION('',(-0.870742940434671,0.491738478953177,0.0));
#168=AXIS2_PLACEMENT_3D('',#165,#166,#167);
#169=CYLINDRICAL_SURFACE('',#168,1.059337093997165);
#170=CARTESIAN_POINT('',(-12.854837987407734,114.90903847466564,0.5));
#171=VERTEX_POINT('',#170);
#172=CARTESIAN_POINT('',(-11.938664842476072,115.44084844751723,0.5));
#173=DIRECTION('',(0.0,0.0,1.0));
#174=DIRECTION('',(-0.870742940434671,0.491738478953177,0.0));
#175=AXIS2_PLACEMENT_3D('',#172,#173,#174);
#176=CIRCLE('',#175,1.059337093997165);
#177=EDGE_CURVE('',#133,#171,#176,.T.);
#178=ORIENTED_EDGE('',*,*,#177,.F.);
#179=ORIENTED_EDGE('',*,*,#160,.F.);
#180=CARTESIAN_POINT('',(-12.854837987407734,114.90903847466564,1.0));
#181=VERTEX_POINT('',#180);
#182=CARTESIAN_POINT('',(-11.938664842476072,115.44084844751723,1.0));
#183=DIRECTION('',(0.0,0.0,-1.0));
#184=DIRECTION('',(-0.870742940434671,0.491738478953177,0.0));
#185=AXIS2_PLACEMENT_3D('',#182,#183,#184);
#186=CIRCLE('',#185,1.059337093997165);
#187=EDGE_CURVE('',#181,#149,#186,.T.);
#188=ORIENTED_EDGE('',*,*,#187,.F.);
#189=CARTESIAN_POINT('',(-12.854837987407734,114.90903847466564,1.0));
#190=DIRECTION('',(0.0,0.0,-1.0));
#191=VECTOR('',#190,0.5);
#192=LINE('',#189,#191);
#193=EDGE_CURVE('',#181,#171,#192,.T.);
#194=ORIENTED_EDGE('',*,*,#193,.T.);
#195=EDGE_LOOP('',(#178,#179,#188,#194));
#196=FACE_OUTER_BOUND('',#195,.T.);
#197=ADVANCED_FACE('',(#196),#169,.F.);
#198=CARTESIAN_POINT('',(-12.854837987407734,114.90903847466564,1.0));
#199=DIRECTION('',(-0.86602364103711,-0.500003053155506,0.0));
#200=DIRECTION('',(0.0,0.0,1.0));
#201=AXIS2_PLACEMENT_3D('',#198,#199,#200);
#202=PLANE('',#201);
#203=CARTESIAN_POINT('',(-0.913743530834267,94.226624569417794,0.5));
#204=VERTEX_POINT('',#203);
#205=CARTESIAN_POINT('',(-12.854837987407734,114.90903847466564,0.5));
#206=DIRECTION('',(0.500003053155506,-0.86602364103711,0.0));
#207=VECTOR('',#206,23.882043081964305);
#208=LINE('',#205,#207);
#209=EDGE_CURVE('',#171,#204,#208,.T.);
#210=ORIENTED_EDGE('',*,*,#209,.F.);
#211=ORIENTED_EDGE('',*,*,#193,.F.);
#212=CARTESIAN_POINT('',(-0.913743530834267,94.226624569417794,1.0));
#213=VERTEX_POINT('',#212);
#214=CARTESIAN_POINT('',(-0.913743530834272,94.226624569417794,1.0));
#215=DIRECTION('',(-0.500003053155506,0.86602364103711,0.0));
#216=VECTOR('',#215,23.882043081964305);
#217=LINE('',#214,#216);
#218=EDGE_CURVE('',#213,#181,#217,.T.);
#219=ORIENTED_EDGE('',*,*,#218,.F.);
#220=CARTESIAN_POINT('',(-0.913743530834267,94.226624569417794,1.0));
#221=DIRECTION('',(0.0,0.0,-1.0));
#222=VECTOR('',#221,0.5);
#223=LINE('',#220,#222);
#224=EDGE_CURVE('',#213,#204,#223,.T.);
#225=ORIENTED_EDGE('',*,*,#224,.T.);
#226=EDGE_LOOP('',(#210,#211,#219,#225));
#227=FACE_OUTER_BOUND('',#226,.T.);
#228=ADVANCED_FACE('',(#227),#202,.F.);
#229=CARTESIAN_POINT('',(0.000013806955764,94.762360805430973,1.0));
#230=DIRECTION('',(0.0,0.0,-1.0));
#231=DIRECTION('',(0.008080018626385,-0.999967356116687,0.0));
#232=AXIS2_PLACEMENT_3D('',#229,#230,#231);
#233=CYLINDRICAL_SURFACE('',#232,1.059228864288873);
#234=CARTESIAN_POINT('',(0.922309067258254,94.241460392908294,0.5));
#235=VERTEX_POINT('',#234);
#236=CARTESIAN_POINT('',(0.000013806955764,94.762360805430973,0.5));
#237=DIRECTION('',(0.0,0.0,1.0));
#238=DIRECTION('',(0.008080018626385,-0.999967356116687,0.0));
#239=AXIS2_PLACEMENT_3D('',#236,#237,#238);
#240=CIRCLE('',#239,1.059228864288873);
#241=EDGE_CURVE('',#204,#235,#240,.T.);
#242=ORIENTED_EDGE('',*,*,#241,.F.);
#243=ORIENTED_EDGE('',*,*,#224,.F.);
#244=CARTESIAN_POINT('',(0.922309067258254,94.241460392908294,1.0));
#245=VERTEX_POINT('',#244);
#246=CARTESIAN_POINT('',(0.000013806955764,94.762360805430973,1.0));
#247=DIRECTION('',(0.0,0.0,-1.0));
#248=DIRECTION('',(0.008080018626385,-0.999967356116687,0.0));
#249=AXIS2_PLACEMENT_3D('',#246,#247,#248);
#250=CIRCLE('',#249,1.059228864288873);
#251=EDGE_CURVE('',#245,#213,#250,.T.);
#252=ORIENTED_EDGE('',*,*,#251,.F.);
#253=CARTESIAN_POINT('',(0.922309067258254,94.241460392908294,1.0));
#254=DIRECTION('',(0.0,0.0,-1.0));
#255=VECTOR('',#254,0.5);
#256=LINE('',#253,#255);
#257=EDGE_CURVE('',#245,#235,#256,.T.);
#258=ORIENTED_EDGE('',*,*,#257,.T.);
#259=EDGE_LOOP('',(#242,#243,#252,#258));
#260=FACE_OUTER_BOUND('',#259,.T.);
#261=ADVANCED_FACE('',(#260),#233,.F.);
#262=CARTESIAN_POINT('',(0.922309067258254,94.241460392908294,1.0));
#263=DIRECTION('',(0.86602364103711,-0.500003053155505,0.0));
#264=DIRECTION('',(0.0,0.0,-1.0));
#265=AXIS2_PLACEMENT_3D('',#262,#263,#264);
#266=PLANE('',#265);
#267=CARTESIAN_POINT('',(12.771610089198646,114.76488470002764,0.5));
#268=VERTEX_POINT('',#267);
#269=CARTESIAN_POINT('',(0.922309067258254,94.241460392908294,0.5));
#270=DIRECTION('',(0.500003053155505,0.86602364103711,0.0));
#271=VECTOR('',#270,23.69845733372987);
#272=LINE('',#269,#271);
#273=EDGE_CURVE('',#235,#268,#272,.T.);
#274=ORIENTED_EDGE('',*,*,#273,.F.);
#275=ORIENTED_EDGE('',*,*,#257,.F.);
#276=CARTESIAN_POINT('',(12.771610089198646,114.76488470002764,1.0));
#277=VERTEX_POINT('',#276);
#278=CARTESIAN_POINT('',(12.771610089198649,114.76488470002765,1.0));
#279=DIRECTION('',(-0.500003053155505,-0.86602364103711,0.0));
#280=VECTOR('',#279,23.69845733372987);
#281=LINE('',#278,#280);
#282=EDGE_CURVE('',#277,#245,#281,.T.);
#283=ORIENTED_EDGE('',*,*,#282,.F.);
#284=CARTESIAN_POINT('',(12.771610089198646,114.76488470002764,1.0));
#285=DIRECTION('',(0.0,0.0,-1.0));
#286=VECTOR('',#285,0.5);
#287=LINE('',#284,#286);
#288=EDGE_CURVE('',#277,#268,#287,.T.);
#289=ORIENTED_EDGE('',*,*,#288,.T.);
#290=EDGE_LOOP('',(#274,#275,#283,#289));
#291=FACE_OUTER_BOUND('',#290,.T.);
#292=ADVANCED_FACE('',(#291),#266,.F.);
#293=CARTESIAN_POINT('',(11.955970407232286,115.44084844751723,1.0));
#294=DIRECTION('',(0.0,0.0,-1.0));
#295=DIRECTION('',(0.901432418101677,0.432919848927448,0.0));
#296=AXIS2_PLACEMENT_3D('',#293,#294,#295);
#297=CYLINDRICAL_SURFACE('',#296,1.059337093997163);
#298=CARTESIAN_POINT('',(11.955970407232286,115.44084844751723,0.5));
#299=DIRECTION('',(0.0,0.0,1.0));
#300=DIRECTION('',(0.901432418101677,0.432919848927448,0.0));
#301=AXIS2_PLACEMENT_3D('',#298,#299,#300);
#302=CIRCLE('',#301,1.059337093997163);
#303=EDGE_CURVE('',#268,#131,#302,.T.);
#304=ORIENTED_EDGE('',*,*,#303,.F.);
#305=ORIENTED_EDGE('',*,*,#288,.F.);
#306=CARTESIAN_POINT('',(11.955970407232286,115.44084844751723,1.0));
#307=DIRECTION('',(0.0,0.0,-1.0));
#308=DIRECTION('',(0.901432418101677,0.432919848927448,0.0));
#309=AXIS2_PLACEMENT_3D('',#306,#307,#308);
#310=CIRCLE('',#309,1.059337093997163);
#311=EDGE_CURVE('',#141,#277,#310,.T.);
#312=ORIENTED_EDGE('',*,*,#311,.F.);
#313=ORIENTED_EDGE('',*,*,#146,.T.);
#314=EDGE_LOOP('',(#304,#305,#312,#313));
#315=FACE_OUTER_BOUND('',#314,.T.);
#316=ADVANCED_FACE('',(#315),#297,.F.);
#317=CARTESIAN_POINT('',(0.004425826064022,108.55052386308759,0.5));
#318=DIRECTION('',(0.0,0.0,1.0));
#319=DIRECTION('',(1.0,0.0,0.0));
#320=AXIS2_PLACEMENT_3D('',#317,#318,#319);
#321=PLANE('',#320);
#322=ORIENTED_EDGE('',*,*,#138,.T.);
#323=ORIENTED_EDGE('',*,*,#177,.T.);
#324=ORIENTED_EDGE('',*,*,#209,.T.);
#325=ORIENTED_EDGE('',*,*,#241,.T.);
#326=ORIENTED_EDGE('',*,*,#273,.T.);
#327=ORIENTED_EDGE('',*,*,#303,.T.);
#328=EDGE_LOOP('',(#322,#323,#324,#325,#326,#327));
#329=FACE_OUTER_BOUND('',#328,.T.);
#330=ADVANCED_FACE('',(#329),#321,.T.);
#331=CARTESIAN_POINT('',(28.50000813802086,125.0,-84.0));
#332=DIRECTION('',(1.0,0.0,0.0));
#333=DIRECTION('',(0.0,0.0,-1.0));
#334=AXIS2_PLACEMENT_3D('',#331,#332,#333);
#335=PLANE('',#334);
#336=CARTESIAN_POINT('',(28.50000813802086,125.0,0.0));
#337=VERTEX_POINT('',#336);
#338=CARTESIAN_POINT('',(28.50000813802086,0.0,0.0));
#339=VERTEX_POINT('',#338);
#340=CARTESIAN_POINT('',(28.50000813802086,125.0,0.0));
#341=DIRECTION('',(0.0,-1.0,0.0));
#342=VECTOR('',#341,125.0);
#343=LINE('',#340,#342);
#344=EDGE_CURVE('',#337,#339,#343,.T.);
#345=ORIENTED_EDGE('',*,*,#344,.F.);
#346=CARTESIAN_POINT('',(28.50000813802086,125.0,-84.0));
#347=VERTEX_POINT('',#346);
#348=CARTESIAN_POINT('',(28.50000813802086,125.0,-84.0));
#349=DIRECTION('',(0.0,0.0,1.0));
#350=VECTOR('',#349,84.0);
#351=LINE('',#348,#350);
#352=EDGE_CURVE('',#347,#337,#351,.T.);
#353=ORIENTED_EDGE('',*,*,#352,.F.);
#354=CARTESIAN_POINT('',(28.50000813802086,0.0,-84.0));
#355=VERTEX_POINT('',#354);
#356=CARTESIAN_POINT('',(28.50000813802086,0.0,-84.0));
#357=DIRECTION('',(0.0,1.0,0.0));
#358=VECTOR('',#357,125.0);
#359=LINE('',#356,#358);
#360=EDGE_CURVE('',#355,#347,#359,.T.);
#361=ORIENTED_EDGE('',*,*,#360,.F.);
#362=CARTESIAN_POINT('',(28.50000813802086,0.0,0.0));
#363=DIRECTION('',(0.0,0.0,-1.0));
#364=VECTOR('',#363,84.0);
#365=LINE('',#362,#364);
#366=EDGE_CURVE('',#339,#355,#365,.T.);
#367=ORIENTED_EDGE('',*,*,#366,.F.);
#368=EDGE_LOOP('',(#345,#353,#361,#367));
#369=FACE_OUTER_BOUND('',#368,.T.);
#370=ADVANCED_FACE('',(#369),#335,.F.);
#371=CARTESIAN_POINT('',(-28.500008138020831,0.0,-84.0));
#372=DIRECTION('',(-1.0,0.0,0.0));
#373=DIRECTION('',(0.0,0.0,1.0));
#374=AXIS2_PLACEMENT_3D('',#371,#372,#373);
#375=PLANE('',#374);
#376=CARTESIAN_POINT('',(-28.500008138020831,0.0,0.0));
#377=VERTEX_POINT('',#376);
#378=CARTESIAN_POINT('',(-28.500008138020831,125.00000000000006,0.0));
#379=VERTEX_POINT('',#378);
#380=CARTESIAN_POINT('',(-28.500008138020831,0.0,0.0));
#381=DIRECTION('',(0.0,1.0,0.0));
#382=VECTOR('',#381,125.00000000000006);
#383=LINE('',#380,#382);
#384=EDGE_CURVE('',#377,#379,#383,.T.);
#385=ORIENTED_EDGE('',*,*,#384,.F.);
#386=CARTESIAN_POINT('',(-28.500008138020831,0.0,-84.0));
#387=VERTEX_POINT('',#386);
#388=CARTESIAN_POINT('',(-28.500008138020831,0.0,-84.0));
#389=DIRECTION('',(0.0,0.0,1.0));
#390=VECTOR('',#389,84.0);
#391=LINE('',#388,#390);
#392=EDGE_CURVE('',#387,#377,#391,.T.);
#393=ORIENTED_EDGE('',*,*,#392,.F.);
#394=CARTESIAN_POINT('',(-28.500008138020831,125.00000000000006,-84.0));
#395=VERTEX_POINT('',#394);
#396=CARTESIAN_POINT('',(-28.500008138020831,125.00000000000006,-84.0));
#397=DIRECTION('',(0.0,-1.0,0.0));
#398=VECTOR('',#397,125.00000000000006);
#399=LINE('',#396,#398);
#400=EDGE_CURVE('',#395,#387,#399,.T.);
#401=ORIENTED_EDGE('',*,*,#400,.F.);
#402=CARTESIAN_POINT('',(-28.500008138020831,125.0,0.0));
#403=DIRECTION('',(0.0,0.0,-1.0));
#404=VECTOR('',#403,84.0);
#405=LINE('',#402,#404);
#406=EDGE_CURVE('',#379,#395,#405,.T.);
#407=ORIENTED_EDGE('',*,*,#406,.F.);
#408=EDGE_LOOP('',(#385,#393,#401,#407));
#409=FACE_OUTER_BOUND('',#408,.T.);
#410=ADVANCED_FACE('',(#409),#375,.F.);
#411=CARTESIAN_POINT('',(0.0,62.5,0.0));
#412=DIRECTION('',(0.0,0.0,1.0));
#413=DIRECTION('',(1.0,0.0,0.0));
#414=AXIS2_PLACEMENT_3D('',#411,#412,#413);
#415=PLANE('',#414);
#416=ORIENTED_EDGE('',*,*,#344,.T.);
#417=CARTESIAN_POINT('',(-28.500008138020831,0.0,0.0));
#418=DIRECTION('',(1.0,0.0,0.0));
#419=VECTOR('',#418,57.000016276041691);
#420=LINE('',#417,#419);
#421=EDGE_CURVE('',#377,#339,#420,.T.);
#422=ORIENTED_EDGE('',*,*,#421,.F.);
#423=ORIENTED_EDGE('',*,*,#384,.T.);
#424=CARTESIAN_POINT('',(28.50000813802086,125.0,0.0));
#425=DIRECTION('',(-1.0,0.0,0.0));
#426=VECTOR('',#425,57.000016276041691);
#427=LINE('',#424,#426);
#428=EDGE_CURVE('',#337,#379,#427,.T.);
#429=ORIENTED_EDGE('',*,*,#428,.F.);
#430=EDGE_LOOP('',(#416,#422,#423,#429));
#431=FACE_OUTER_BOUND('',#430,.T.);
#432=ADVANCED_FACE('',(#431),#415,.F.);
#433=CARTESIAN_POINT('',(0.0,62.5,-84.0));
#434=DIRECTION('',(0.0,0.0,1.0));
#435=DIRECTION('',(1.0,0.0,0.0));
#436=AXIS2_PLACEMENT_3D('',#433,#434,#435);
#437=PLANE('',#436);
#438=ORIENTED_EDGE('',*,*,#400,.T.);
#439=CARTESIAN_POINT('',(-29.50000813802086,0.0,-84.0));
#440=VERTEX_POINT('',#439);
#441=CARTESIAN_POINT('',(-29.50000813802086,0.0,-84.0));
#442=DIRECTION('',(1.0,0.0,0.0));
#443=VECTOR('',#442,1.000000000000028);
#444=LINE('',#441,#443);
#445=EDGE_CURVE('',#440,#387,#444,.T.);
#446=ORIENTED_EDGE('',*,*,#445,.F.);
#447=CARTESIAN_POINT('',(-29.500008138020831,125.0,-84.0));
#448=VERTEX_POINT('',#447);
#449=CARTESIAN_POINT('',(-29.500008138020831,125.0,-84.0));
#450=DIRECTION('',(0.0,-1.0,0.0));
#451=VECTOR('',#450,125.0);
#452=LINE('',#449,#451);
#453=EDGE_CURVE('',#448,#440,#452,.T.);
#454=ORIENTED_EDGE('',*,*,#453,.F.);
#455=CARTESIAN_POINT('',(-28.500008138020831,125.0,-84.0));
#456=DIRECTION('',(-1.0,0.0,0.0));
#457=VECTOR('',#456,1.0);
#458=LINE('',#455,#457);
#459=EDGE_CURVE('',#395,#448,#458,.T.);
#460=ORIENTED_EDGE('',*,*,#459,.F.);
#461=EDGE_LOOP('',(#438,#446,#454,#460));
#462=FACE_OUTER_BOUND('',#461,.T.);
#463=ADVANCED_FACE('',(#462),#437,.F.);
#464=CARTESIAN_POINT('',(0.0,62.5,-84.0));
#465=DIRECTION('',(0.0,0.0,1.0));
#466=DIRECTION('',(1.0,0.0,0.0));
#467=AXIS2_PLACEMENT_3D('',#464,#465,#466);
#468=PLANE('',#467);
#469=ORIENTED_EDGE('',*,*,#360,.T.);
#470=CARTESIAN_POINT('',(29.50000813802086,125.0,-84.0));
#471=VERTEX_POINT('',#470);
#472=CARTESIAN_POINT('',(29.50000813802086,125.0,-84.0));
#473=DIRECTION('',(-1.0,0.0,0.0));
#474=VECTOR('',#473,1.0);
#475=LINE('',#472,#474);
#476=EDGE_CURVE('',#471,#347,#475,.T.);
#477=ORIENTED_EDGE('',*,*,#476,.F.);
#478=CARTESIAN_POINT('',(29.50000813802086,0.0,-84.0));
#479=VERTEX_POINT('',#478);
#480=CARTESIAN_POINT('',(29.50000813802086,0.0,-84.0));
#481=DIRECTION('',(0.0,1.0,0.0));
#482=VECTOR('',#481,125.0);
#483=LINE('',#480,#482);
#484=EDGE_CURVE('',#479,#471,#483,.T.);
#485=ORIENTED_EDGE('',*,*,#484,.F.);
#486=CARTESIAN_POINT('',(28.50000813802086,0.0,-84.0));
#487=DIRECTION('',(1.0,0.0,0.0));
#488=VECTOR('',#487,1.0);
#489=LINE('',#486,#488);
#490=EDGE_CURVE('',#355,#479,#489,.T.);
#491=ORIENTED_EDGE('',*,*,#490,.F.);
#492=EDGE_LOOP('',(#469,#477,#485,#491));
#493=FACE_OUTER_BOUND('',#492,.T.);
#494=ADVANCED_FACE('',(#493),#468,.F.);
#495=CARTESIAN_POINT('',(-29.500008138020831,125.0,-84.0));
#496=DIRECTION('',(0.0,1.0,0.0));
#497=DIRECTION('',(0.0,0.0,1.0));
#498=AXIS2_PLACEMENT_3D('',#495,#496,#497);
#499=PLANE('',#498);
#500=ORIENTED_EDGE('',*,*,#352,.T.);
#501=ORIENTED_EDGE('',*,*,#428,.T.);
#502=ORIENTED_EDGE('',*,*,#406,.T.);
#503=ORIENTED_EDGE('',*,*,#459,.T.);
#504=CARTESIAN_POINT('',(-29.500008138020831,125.0,1.0));
#505=VERTEX_POINT('',#504);
#506=CARTESIAN_POINT('',(-29.500008138020831,125.0,-84.0));
#507=DIRECTION('',(0.0,0.0,1.0));
#508=VECTOR('',#507,85.0);
#509=LINE('',#506,#508);
#510=EDGE_CURVE('',#448,#505,#509,.T.);
#511=ORIENTED_EDGE('',*,*,#510,.T.);
#512=CARTESIAN_POINT('',(29.50000813802086,125.0,1.0));
#513=VERTEX_POINT('',#512);
#514=CARTESIAN_POINT('',(-29.500008138020831,125.0,1.0));
#515=DIRECTION('',(1.0,0.0,0.0));
#516=VECTOR('',#515,59.000016276041691);
#517=LINE('',#514,#516);
#518=EDGE_CURVE('',#505,#513,#517,.T.);
#519=ORIENTED_EDGE('',*,*,#518,.T.);
#520=CARTESIAN_POINT('',(29.50000813802086,125.0,-84.0));
#521=DIRECTION('',(0.0,0.0,1.0));
#522=VECTOR('',#521,85.0);
#523=LINE('',#520,#522);
#524=EDGE_CURVE('',#471,#513,#523,.T.);
#525=ORIENTED_EDGE('',*,*,#524,.F.);
#526=ORIENTED_EDGE('',*,*,#476,.T.);
#527=EDGE_LOOP('',(#500,#501,#502,#503,#511,#519,#525,#526));
#528=FACE_OUTER_BOUND('',#527,.T.);
#529=ADVANCED_FACE('',(#528),#499,.T.);
#530=CARTESIAN_POINT('',(-29.50000813802086,0.0,-84.0));
#531=DIRECTION('',(-1.0,0.0,0.0));
#532=DIRECTION('',(0.0,0.0,1.0));
#533=AXIS2_PLACEMENT_3D('',#530,#531,#532);
#534=PLANE('',#533);
#535=CARTESIAN_POINT('',(-29.50000813802086,0.0,1.0));
#536=VERTEX_POINT('',#535);
#537=CARTESIAN_POINT('',(-29.50000813802086,0.0,1.0));
#538=DIRECTION('',(0.0,1.0,0.0));
#539=VECTOR('',#538,125.0);
#540=LINE('',#537,#539);
#541=EDGE_CURVE('',#536,#505,#540,.T.);
#542=ORIENTED_EDGE('',*,*,#541,.T.);
#543=ORIENTED_EDGE('',*,*,#510,.F.);
#544=ORIENTED_EDGE('',*,*,#453,.T.);
#545=CARTESIAN_POINT('',(-29.50000813802086,0.0,-84.0));
#546=DIRECTION('',(0.0,0.0,1.0));
#547=VECTOR('',#546,85.0);
#548=LINE('',#545,#547);
#549=EDGE_CURVE('',#440,#536,#548,.T.);
#550=ORIENTED_EDGE('',*,*,#549,.T.);
#551=EDGE_LOOP('',(#542,#543,#544,#550));
#552=FACE_OUTER_BOUND('',#551,.T.);
#553=ADVANCED_FACE('',(#552),#534,.T.);
#554=CARTESIAN_POINT('',(29.50000813802086,125.0,-84.0));
#555=DIRECTION('',(1.0,0.0,0.0));
#556=DIRECTION('',(0.0,0.0,-1.0));
#557=AXIS2_PLACEMENT_3D('',#554,#555,#556);
#558=PLANE('',#557);
#559=CARTESIAN_POINT('',(29.50000813802086,0.0,1.0));
#560=VERTEX_POINT('',#559);
#561=CARTESIAN_POINT('',(29.50000813802086,125.0,1.0));
#562=DIRECTION('',(0.0,-1.0,0.0));
#563=VECTOR('',#562,125.0);
#564=LINE('',#561,#563);
#565=EDGE_CURVE('',#513,#560,#564,.T.);
#566=ORIENTED_EDGE('',*,*,#565,.T.);
#567=CARTESIAN_POINT('',(29.50000813802086,0.0,-84.0));
#568=DIRECTION('',(0.0,0.0,1.0));
#569=VECTOR('',#568,85.0);
#570=LINE('',#567,#569);
#571=EDGE_CURVE('',#479,#560,#570,.T.);
#572=ORIENTED_EDGE('',*,*,#571,.F.);
#573=ORIENTED_EDGE('',*,*,#484,.T.);
#574=ORIENTED_EDGE('',*,*,#524,.T.);
#575=EDGE_LOOP('',(#566,#572,#573,#574));
#576=FACE_OUTER_BOUND('',#575,.T.);
#577=ADVANCED_FACE('',(#576),#558,.T.);
#578=CARTESIAN_POINT('',(29.50000813802086,0.0,-84.0));
#579=DIRECTION('',(0.0,-1.0,0.0));
#580=DIRECTION('',(0.0,0.0,-1.0));
#581=AXIS2_PLACEMENT_3D('',#578,#579,#580);
#582=PLANE('',#581);
#583=ORIENTED_EDGE('',*,*,#366,.T.);
#584=ORIENTED_EDGE('',*,*,#490,.T.);
#585=ORIENTED_EDGE('',*,*,#571,.T.);
#586=CARTESIAN_POINT('',(29.50000813802086,0.0,1.0));
#587=DIRECTION('',(-1.0,0.0,0.0));
#588=VECTOR('',#587,59.00001627604172);
#589=LINE('',#586,#588);
#590=EDGE_CURVE('',#560,#536,#589,.T.);
#591=ORIENTED_EDGE('',*,*,#590,.T.);
#592=ORIENTED_EDGE('',*,*,#549,.F.);
#593=ORIENTED_EDGE('',*,*,#445,.T.);
#594=ORIENTED_EDGE('',*,*,#392,.T.);
#595=ORIENTED_EDGE('',*,*,#421,.T.);
#596=EDGE_LOOP('',(#583,#584,#585,#591,#592,#593,#594,#595));
#597=FACE_OUTER_BOUND('',#596,.T.);
#598=ADVANCED_FACE('',(#597),#582,.T.);
#599=CARTESIAN_POINT('',(0.0,62.5,1.0));
#600=DIRECTION('',(0.0,0.0,1.0));
#601=DIRECTION('',(1.0,0.0,0.0));
#602=AXIS2_PLACEMENT_3D('',#599,#600,#601);
#603=PLANE('',#602);
#604=ORIENTED_EDGE('',*,*,#541,.F.);
#605=ORIENTED_EDGE('',*,*,#590,.F.);
#606=ORIENTED_EDGE('',*,*,#565,.F.);
#607=ORIENTED_EDGE('',*,*,#518,.F.);
#608=EDGE_LOOP('',(#604,#605,#606,#607));
#609=FACE_OUTER_BOUND('',#608,.T.);
#610=ORIENTED_EDGE('',*,*,#154,.T.);
#611=ORIENTED_EDGE('',*,*,#311,.T.);
#612=ORIENTED_EDGE('',*,*,#282,.T.);
#613=ORIENTED_EDGE('',*,*,#251,.T.);
#614=ORIENTED_EDGE('',*,*,#218,.T.);
#615=ORIENTED_EDGE('',*,*,#187,.T.);
#616=EDGE_LOOP('',(#610,#611,#612,#613,#614,#615));
#617=FACE_BOUND('',#616,.T.);
#618=ADVANCED_FACE('',(#609,#617),#603,.T.);
#619=CLOSED_SHELL('',(#164,#197,#228,#261,#292,#316,#330,#370,#410,#432,#463,#494,#529,#553,#577,#598,#618));
#620=MANIFOLD_SOLID_BREP('18BDE',#619);
#621=ADVANCED_BREP_SHAPE_REPRESENTATION('ABSR1',(#620),#28);
#622=SHAPE_REPRESENTATION_RELATIONSHIP('SRRPL1','',#621,#122);
ENDSEC;
END-ISO-10303-21;
