ISO-10303-21;
HEADER;
/****************************************************************
 * Generated by software with PDElib inside                    *
 * PDElib Version v51a, created Fri 09/10/2010                  *
 * ITI Transcendata (http://www.transcendata.com/)              *
 ****************************************************************/
FILE_DESCRIPTION((''),'2;1');
FILE_NAME('3d_GEX8211.stp','2012-10-03T11:04:04',(''),(''),'Mechanical Desktop 2011','Mechanical Desktop 2011',', , ');
FILE_SCHEMA(('CONFIG_CONTROL_DESIGN'));
ENDSEC;
DATA;
#10=(NAMED_UNIT(*)PLANE_ANGLE_UNIT()SI_UNIT($,.RADIAN.));
#11=DIMENSIONAL_EXPONENTS(0.0,0.0,0.0,0.0,0.0,0.0,0.0);
#12=PLANE_ANGLE_MEASURE_WITH_UNIT(PLANE_ANGLE_MEASURE(0.0174532925),#10);
#16=(CONVERSION_BASED_UNIT('DEGREE',#12)NAMED_UNIT(#11)PLANE_ANGLE_UNIT());
#20=(NAMED_UNIT(*)SI_UNIT($,.STERADIAN.)SOLID_ANGLE_UNIT());
#24=(LENGTH_UNIT()NAMED_UNIT(*)SI_UNIT(.MILLI.,.METRE.));
#26=UNCERTAINTY_MEASURE_WITH_UNIT(LENGTH_MEASURE(0.000001),#24,'DISTANCE_ACCURACY_VALUE','');
#28=(GEOMETRIC_REPRESENTATION_CONTEXT(3)GLOBAL_UNCERTAINTY_ASSIGNED_CONTEXT((#26))GLOBAL_UNIT_ASSIGNED_CONTEXT((#16,#20,#24))REPRESENTATION_CONTEXT('','3D'));
#29=APPLICATION_CONTEXT('CONFIGURATION CONTROLLED 3D DESIGNS OF MECHANICAL PARTS AND ASSEMBLIES');
#30=APPLICATION_PROTOCOL_DEFINITION('INTERNATIONAL STANDARD','config_control_design',1995,#29);
#31=MECHANICAL_CONTEXT('3D Mechanical Parts',#29,'mechanical');
#32=PRODUCT('Product','Product',' ',(#31));
#33=PRODUCT_RELATED_PRODUCT_CATEGORY('detail',$,(#32));
#34=PRODUCT_CATEGORY('part',$);
#35=PRODUCT_CATEGORY_RELATIONSHIP('None','None',#34,#33);
#36=PERSON('1','Design','Joe',$,$,$);
#37=ORGANIZATION($,'None','None');
#38=PERSON_AND_ORGANIZATION(#36,#37);
#39=PERSON_AND_ORGANIZATION_ROLE('design_owner');
#40=CC_DESIGN_PERSON_AND_ORGANIZATION_ASSIGNMENT(#38,#39,(#32));
#41=PRODUCT_DEFINITION_FORMATION_WITH_SPECIFIED_SOURCE('None','None',#32,.BOUGHT.);
#42=PERSON('2','Creator','Joe',$,$,$);
#43=ORGANIZATION($,'None','None');
#44=PERSON_AND_ORGANIZATION(#42,#43);
#45=PERSON_AND_ORGANIZATION_ROLE('creator');
#46=CC_DESIGN_PERSON_AND_ORGANIZATION_ASSIGNMENT(#44,#45,(#41));
#47=PERSON('3','Supplier','Joe',$,$,$);
#48=ORGANIZATION($,'None','None');
#49=PERSON_AND_ORGANIZATION(#47,#48);
#50=PERSON_AND_ORGANIZATION_ROLE('design_supplier');
#51=CC_DESIGN_PERSON_AND_ORGANIZATION_ASSIGNMENT(#49,#50,(#41));
#52=APPROVAL_STATUS('approved');
#53=APPROVAL(#52,'None');
#54=PERSON('4','Approver','Joe',$,$,$);
#55=ORGANIZATION($,'None','None');
#56=PERSON_AND_ORGANIZATION(#54,#55);
#57=APPROVAL_ROLE('approver');
#58=APPROVAL_PERSON_ORGANIZATION(#56,#53,#57);
#59=COORDINATED_UNIVERSAL_TIME_OFFSET(8,$,.EXACT.);
#60=CALENDAR_DATE(1996,29,5);
#61=LOCAL_TIME(12,0,0.0,#59);
#62=DATE_AND_TIME(#60,#61);
#63=APPROVAL_DATE_TIME(#62,#53);
#64=CC_DESIGN_APPROVAL(#53,(#41));
#65=SECURITY_CLASSIFICATION_LEVEL('unclassified');
#66=SECURITY_CLASSIFICATION('security','None',#65);
#67=CC_DESIGN_SECURITY_CLASSIFICATION(#66,(#41));
#68=APPROVAL_STATUS('approved');
#69=APPROVAL(#68,'None');
#70=PERSON('5','Approver','Joe',$,$,$);
#71=ORGANIZATION($,'None','None');
#72=PERSON_AND_ORGANIZATION(#70,#71);
#73=APPROVAL_ROLE('approver');
#74=APPROVAL_PERSON_ORGANIZATION(#72,#69,#73);
#75=COORDINATED_UNIVERSAL_TIME_OFFSET(8,$,.EXACT.);
#76=CALENDAR_DATE(1996,29,5);
#77=LOCAL_TIME(12,0,0.0,#75);
#78=DATE_AND_TIME(#76,#77);
#79=APPROVAL_DATE_TIME(#78,#69);
#80=CC_DESIGN_APPROVAL(#69,(#66));
#81=PERSON('6','Classifier','Joe',$,$,$);
#82=ORGANIZATION($,'None','None');
#83=PERSON_AND_ORGANIZATION(#81,#82);
#84=PERSON_AND_ORGANIZATION_ROLE('classification_officer');
#85=CC_DESIGN_PERSON_AND_ORGANIZATION_ASSIGNMENT(#83,#84,(#66));
#86=COORDINATED_UNIVERSAL_TIME_OFFSET(8,$,.EXACT.);
#87=CALENDAR_DATE(1996,29,5);
#88=LOCAL_TIME(12,0,0.0,#86);
#89=DATE_AND_TIME(#87,#88);
#90=DATE_TIME_ROLE('classification_date');
#91=CC_DESIGN_DATE_AND_TIME_ASSIGNMENT(#89,#90,(#66));
#92=DESIGN_CONTEXT('Design Context',#29,'design');
#93=PRODUCT_DEFINITION('None','None',#41,#92);
#94=PERSON('7','Creator','Joe',$,$,$);
#95=ORGANIZATION($,'None','None');
#96=PERSON_AND_ORGANIZATION(#94,#95);
#97=PERSON_AND_ORGANIZATION_ROLE('creator');
#98=CC_DESIGN_PERSON_AND_ORGANIZATION_ASSIGNMENT(#96,#97,(#93));
#99=COORDINATED_UNIVERSAL_TIME_OFFSET(8,$,.EXACT.);
#100=CALENDAR_DATE(1996,29,5);
#101=LOCAL_TIME(12,0,0.0,#99);
#102=DATE_AND_TIME(#100,#101);
#103=DATE_TIME_ROLE('creation_date');
#104=CC_DESIGN_DATE_AND_TIME_ASSIGNMENT(#102,#103,(#93));
#105=APPROVAL_STATUS('approved');
#106=APPROVAL(#105,'None');
#107=PERSON('8','Approver','Joe',$,$,$);
#108=ORGANIZATION($,'None','None');
#109=PERSON_AND_ORGANIZATION(#107,#108);
#110=APPROVAL_ROLE('approver');
#111=APPROVAL_PERSON_ORGANIZATION(#109,#106,#110);
#112=COORDINATED_UNIVERSAL_TIME_OFFSET(8,$,.EXACT.);
#113=CALENDAR_DATE(1996,29,5);
#114=LOCAL_TIME(12,0,0.0,#112);
#115=DATE_AND_TIME(#113,#114);
#116=APPROVAL_DATE_TIME(#115,#106);
#117=CC_DESIGN_APPROVAL(#106,(#93));
#118=CARTESIAN_POINT('NONE',(0.0,0.0,0.0));
#119=DIRECTION('NONE',(0.0,0.0,1.0));
#120=DIRECTION('NONE',(1.0,0.0,0.0));
#121=AXIS2_PLACEMENT_3D('NONE',#118,#119,#120);
#122=SHAPE_REPRESENTATION('SR1',(#121),#28);
#123=PRODUCT_DEFINITION_SHAPE('PDS1','Test Part',#93);
#124=SHAPE_DEFINITION_REPRESENTATION(#123,#122);
#125=CARTESIAN_POINT('',(18.999796750786125,97.999625852348629,-59.0));
#126=DIRECTION('',(0.0,0.0,1.0));
#127=DIRECTION('',(0.707018632765278,0.707194918620544,0.0));
#128=AXIS2_PLACEMENT_3D('',#125,#126,#127);
#129=CYLINDRICAL_SURFACE('',#128,2.000471819443396);
#130=CARTESIAN_POINT('',(20.0,99.732104123683996,-59.0));
#131=VERTEX_POINT('',#130);
#132=CARTESIAN_POINT('',(20.0,99.732104123683996,0.0));
#133=VERTEX_POINT('',#132);
#134=CARTESIAN_POINT('',(20.0,99.732104123683996,-59.0));
#135=DIRECTION('',(0.0,0.0,1.0));
#136=VECTOR('',#135,59.0);
#137=LINE('',#134,#136);
#138=EDGE_CURVE('',#131,#133,#137,.T.);
#139=ORIENTED_EDGE('',*,*,#138,.T.);
#140=CARTESIAN_POINT('',(18.999547386123304,100.00009765625001,0.0));
#141=VERTEX_POINT('',#140);
#142=CARTESIAN_POINT('',(18.999796750786125,97.999625852348629,0.0));
#143=DIRECTION('',(0.0,0.0,1.0));
#144=DIRECTION('',(0.707018632765278,0.707194918620544,0.0));
#145=AXIS2_PLACEMENT_3D('',#142,#143,#144);
#146=CIRCLE('',#145,2.000471819443396);
#147=EDGE_CURVE('',#133,#141,#146,.T.);
#148=ORIENTED_EDGE('',*,*,#147,.T.);
#149=CARTESIAN_POINT('',(18.999547386123304,100.00009765625001,1.0));
#150=VERTEX_POINT('',#149);
#151=CARTESIAN_POINT('',(18.999547386123304,100.00009765625001,0.0));
#152=DIRECTION('',(0.0,0.0,1.0));
#153=VECTOR('',#152,1.0);
#154=LINE('',#151,#153);
#155=EDGE_CURVE('',#141,#150,#154,.T.);
#156=ORIENTED_EDGE('',*,*,#155,.T.);
#157=CARTESIAN_POINT('',(21.000268554687509,97.999875217007883,1.0));
#158=VERTEX_POINT('',#157);
#159=CARTESIAN_POINT('',(18.999796750786125,97.999625852348629,1.0));
#160=DIRECTION('',(0.0,0.0,-1.0));
#161=DIRECTION('',(0.707018632765278,0.707194918620544,0.0));
#162=AXIS2_PLACEMENT_3D('',#159,#160,#161);
#163=CIRCLE('',#162,2.000471819443396);
#164=EDGE_CURVE('',#150,#158,#163,.T.);
#165=ORIENTED_EDGE('',*,*,#164,.T.);
#166=CARTESIAN_POINT('',(21.000268554687509,97.999875217007883,-59.0));
#167=VERTEX_POINT('',#166);
#168=CARTESIAN_POINT('',(21.000268554687509,97.999875217007883,-59.0));
#169=DIRECTION('',(0.0,0.0,1.0));
#170=VECTOR('',#169,60.0);
#171=LINE('',#168,#170);
#172=EDGE_CURVE('',#167,#158,#171,.T.);
#173=ORIENTED_EDGE('',*,*,#172,.F.);
#174=CARTESIAN_POINT('',(18.999796750786125,97.999625852348629,-59.0));
#175=DIRECTION('',(0.0,0.0,1.0));
#176=DIRECTION('',(0.707018632765278,0.707194918620544,0.0));
#177=AXIS2_PLACEMENT_3D('',#174,#175,#176);
#178=CIRCLE('',#177,2.000471819443396);
#179=EDGE_CURVE('',#167,#131,#178,.T.);
#180=ORIENTED_EDGE('',*,*,#179,.T.);
#181=EDGE_LOOP('',(#139,#148,#156,#165,#173,#180));
#182=FACE_OUTER_BOUND('',#181,.T.);
#183=ADVANCED_FACE('',(#182),#129,.T.);
#184=CARTESIAN_POINT('',(-19.000046115509377,100.00009765625001,-59.0));
#185=DIRECTION('',(0.0,1.0,0.0));
#186=DIRECTION('',(0.0,0.0,1.0));
#187=AXIS2_PLACEMENT_3D('',#184,#185,#186);
#188=PLANE('',#187);
#189=CARTESIAN_POINT('',(-19.000046115509377,100.00009765625001,0.0));
#190=VERTEX_POINT('',#189);
#191=CARTESIAN_POINT('',(18.999547386123304,100.00009765625001,0.0));
#192=DIRECTION('',(-1.0,0.0,0.0));
#193=VECTOR('',#192,37.999593501632681);
#194=LINE('',#191,#193);
#195=EDGE_CURVE('',#141,#190,#194,.T.);
#196=ORIENTED_EDGE('',*,*,#195,.T.);
#197=CARTESIAN_POINT('',(-19.000046115509377,100.00009765625001,1.0));
#198=VERTEX_POINT('',#197);
#199=CARTESIAN_POINT('',(-19.000046115509377,100.00009765625001,0.0));
#200=DIRECTION('',(0.0,0.0,1.0));
#201=VECTOR('',#200,1.0);
#202=LINE('',#199,#201);
#203=EDGE_CURVE('',#190,#198,#202,.T.);
#204=ORIENTED_EDGE('',*,*,#203,.T.);
#205=CARTESIAN_POINT('',(-19.000046115509377,100.00009765625001,1.0));
#206=DIRECTION('',(1.0,0.0,0.0));
#207=VECTOR('',#206,37.999593501632681);
#208=LINE('',#205,#207);
#209=EDGE_CURVE('',#198,#150,#208,.T.);
#210=ORIENTED_EDGE('',*,*,#209,.T.);
#211=ORIENTED_EDGE('',*,*,#155,.F.);
#212=EDGE_LOOP('',(#196,#204,#210,#211));
#213=FACE_OUTER_BOUND('',#212,.T.);
#214=ADVANCED_FACE('',(#213),#188,.T.);
#215=CARTESIAN_POINT('',(0.000000075562049,49.693269827390338,-59.0));
#216=DIRECTION('',(0.0,0.0,1.0));
#217=DIRECTION('',(1.0,0.0,0.0));
#218=AXIS2_PLACEMENT_3D('',#215,#216,#217);
#219=PLANE('',#218);
#220=CARTESIAN_POINT('',(-20.0,99.732104123683925,-59.0));
#221=VERTEX_POINT('',#220);
#222=CARTESIAN_POINT('',(-20.0,0.0,-59.0));
#223=VERTEX_POINT('',#222);
#224=CARTESIAN_POINT('',(-20.0,99.732104123683925,-59.0));
#225=DIRECTION('',(0.0,-1.0,0.0));
#226=VECTOR('',#225,99.732104123683925);
#227=LINE('',#224,#226);
#228=EDGE_CURVE('',#221,#223,#227,.T.);
#229=ORIENTED_EDGE('',*,*,#228,.T.);
#230=CARTESIAN_POINT('',(-21.000268554687494,0.0,-59.0));
#231=VERTEX_POINT('',#230);
#232=CARTESIAN_POINT('',(-21.000268554687494,0.0,-59.0));
#233=DIRECTION('',(1.0,0.0,0.0));
#234=VECTOR('',#233,1.000268554687494);
#235=LINE('',#232,#234);
#236=EDGE_CURVE('',#231,#223,#235,.T.);
#237=ORIENTED_EDGE('',*,*,#236,.F.);
#238=CARTESIAN_POINT('',(-21.000268554687494,97.99937648766786,-59.0));
#239=VERTEX_POINT('',#238);
#240=CARTESIAN_POINT('',(-21.000268554687494,97.99937648766786,-59.0));
#241=DIRECTION('',(0.0,-1.0,0.0));
#242=VECTOR('',#241,97.99937648766786);
#243=LINE('',#240,#242);
#244=EDGE_CURVE('',#239,#231,#243,.T.);
#245=ORIENTED_EDGE('',*,*,#244,.F.);
#246=CARTESIAN_POINT('',(-18.999796750785976,97.999625852348487,-59.0));
#247=DIRECTION('',(0.0,0.0,1.0));
#248=DIRECTION('',(-0.707194918635026,0.707018632750792,0.0));
#249=AXIS2_PLACEMENT_3D('',#246,#247,#248);
#250=CIRCLE('',#249,2.000471819443537);
#251=EDGE_CURVE('',#221,#239,#250,.T.);
#252=ORIENTED_EDGE('',*,*,#251,.F.);
#253=EDGE_LOOP('',(#229,#237,#245,#252));
#254=FACE_OUTER_BOUND('',#253,.T.);
#255=ADVANCED_FACE('',(#254),#219,.F.);
#256=CARTESIAN_POINT('',(-18.999796750785976,97.999625852348487,-59.0));
#257=DIRECTION('',(0.0,0.0,1.0));
#258=DIRECTION('',(-0.707194918635026,0.707018632750792,0.0));
#259=AXIS2_PLACEMENT_3D('',#256,#257,#258);
#260=CYLINDRICAL_SURFACE('',#259,2.000471819443537);
#261=CARTESIAN_POINT('',(-20.0,99.732104123683925,0.0));
#262=VERTEX_POINT('',#261);
#263=CARTESIAN_POINT('',(-18.999796750785976,97.999625852348487,0.0));
#264=DIRECTION('',(0.0,0.0,1.0));
#265=DIRECTION('',(-0.707194918635026,0.707018632750792,0.0));
#266=AXIS2_PLACEMENT_3D('',#263,#264,#265);
#267=CIRCLE('',#266,2.000471819443537);
#268=EDGE_CURVE('',#190,#262,#267,.T.);
#269=ORIENTED_EDGE('',*,*,#268,.T.);
#270=CARTESIAN_POINT('',(-20.0,99.732104123683925,0.0));
#271=DIRECTION('',(0.0,0.0,-1.0));
#272=VECTOR('',#271,59.0);
#273=LINE('',#270,#272);
#274=EDGE_CURVE('',#262,#221,#273,.T.);
#275=ORIENTED_EDGE('',*,*,#274,.T.);
#276=ORIENTED_EDGE('',*,*,#251,.T.);
#277=CARTESIAN_POINT('',(-21.000268554687494,97.99937648766786,1.0));
#278=VERTEX_POINT('',#277);
#279=CARTESIAN_POINT('',(-21.000268554687494,97.99937648766786,-59.0));
#280=DIRECTION('',(0.0,0.0,1.0));
#281=VECTOR('',#280,60.0);
#282=LINE('',#279,#281);
#283=EDGE_CURVE('',#239,#278,#282,.T.);
#284=ORIENTED_EDGE('',*,*,#283,.T.);
#285=CARTESIAN_POINT('',(-18.999796750785976,97.999625852348487,1.0));
#286=DIRECTION('',(0.0,0.0,-1.0));
#287=DIRECTION('',(-0.707194918635026,0.707018632750792,0.0));
#288=AXIS2_PLACEMENT_3D('',#285,#286,#287);
#289=CIRCLE('',#288,2.000471819443537);
#290=EDGE_CURVE('',#278,#198,#289,.T.);
#291=ORIENTED_EDGE('',*,*,#290,.T.);
#292=ORIENTED_EDGE('',*,*,#203,.F.);
#293=EDGE_LOOP('',(#269,#275,#276,#284,#291,#292));
#294=FACE_OUTER_BOUND('',#293,.T.);
#295=ADVANCED_FACE('',(#294),#260,.T.);
#296=CARTESIAN_POINT('',(0.0,49.0,0.0));
#297=DIRECTION('',(0.0,0.0,1.0));
#298=DIRECTION('',(1.0,0.0,0.0));
#299=AXIS2_PLACEMENT_3D('',#296,#297,#298);
#300=PLANE('',#299);
#301=CARTESIAN_POINT('',(-20.0,0.0,0.0));
#302=VERTEX_POINT('',#301);
#303=CARTESIAN_POINT('',(20.0,0.0,0.0));
#304=VERTEX_POINT('',#303);
#305=CARTESIAN_POINT('',(-20.0,0.0,0.0));
#306=DIRECTION('',(1.0,0.0,0.0));
#307=VECTOR('',#306,40.0);
#308=LINE('',#305,#307);
#309=EDGE_CURVE('',#302,#304,#308,.T.);
#310=ORIENTED_EDGE('',*,*,#309,.F.);
#311=CARTESIAN_POINT('',(-20.0,0.0,0.0));
#312=DIRECTION('',(0.0,1.0,0.0));
#313=VECTOR('',#312,99.732104123683925);
#314=LINE('',#311,#313);
#315=EDGE_CURVE('',#302,#262,#314,.T.);
#316=ORIENTED_EDGE('',*,*,#315,.T.);
#317=ORIENTED_EDGE('',*,*,#268,.F.);
#318=ORIENTED_EDGE('',*,*,#195,.F.);
#319=ORIENTED_EDGE('',*,*,#147,.F.);
#320=CARTESIAN_POINT('',(20.0,0.0,0.0));
#321=DIRECTION('',(0.0,1.0,0.0));
#322=VECTOR('',#321,99.732104123683996);
#323=LINE('',#320,#322);
#324=EDGE_CURVE('',#304,#133,#323,.T.);
#325=ORIENTED_EDGE('',*,*,#324,.F.);
#326=EDGE_LOOP('',(#310,#316,#317,#318,#319,#325));
#327=FACE_OUTER_BOUND('',#326,.T.);
#328=ADVANCED_FACE('',(#327),#300,.F.);
#329=CARTESIAN_POINT('',(-20.0,49.0,-30.0));
#330=DIRECTION('',(1.0,0.0,0.0));
#331=DIRECTION('',(0.0,0.0,-1.0));
#332=AXIS2_PLACEMENT_3D('',#329,#330,#331);
#333=PLANE('',#332);
#334=ORIENTED_EDGE('',*,*,#315,.F.);
#335=CARTESIAN_POINT('',(-20.0,0.0,-59.0));
#336=DIRECTION('',(0.0,0.0,1.0));
#337=VECTOR('',#336,59.0);
#338=LINE('',#335,#337);
#339=EDGE_CURVE('',#223,#302,#338,.T.);
#340=ORIENTED_EDGE('',*,*,#339,.F.);
#341=ORIENTED_EDGE('',*,*,#228,.F.);
#342=ORIENTED_EDGE('',*,*,#274,.F.);
#343=EDGE_LOOP('',(#334,#340,#341,#342));
#344=FACE_OUTER_BOUND('',#343,.T.);
#345=ADVANCED_FACE('',(#344),#333,.T.);
#346=CARTESIAN_POINT('',(20.0,49.0,-30.0));
#347=DIRECTION('',(-1.0,0.0,0.0));
#348=DIRECTION('',(0.0,0.0,1.0));
#349=AXIS2_PLACEMENT_3D('',#346,#347,#348);
#350=PLANE('',#349);
#351=CARTESIAN_POINT('',(20.0,0.0,-59.0));
#352=VERTEX_POINT('',#351);
#353=CARTESIAN_POINT('',(20.0,0.0,0.0));
#354=DIRECTION('',(0.0,0.0,-1.0));
#355=VECTOR('',#354,59.0);
#356=LINE('',#353,#355);
#357=EDGE_CURVE('',#304,#352,#356,.T.);
#358=ORIENTED_EDGE('',*,*,#357,.F.);
#359=ORIENTED_EDGE('',*,*,#324,.T.);
#360=ORIENTED_EDGE('',*,*,#138,.F.);
#361=CARTESIAN_POINT('',(20.0,0.0,-59.0));
#362=DIRECTION('',(0.0,1.0,0.0));
#363=VECTOR('',#362,99.732104123683996);
#364=LINE('',#361,#363);
#365=EDGE_CURVE('',#352,#131,#364,.T.);
#366=ORIENTED_EDGE('',*,*,#365,.F.);
#367=EDGE_LOOP('',(#358,#359,#360,#366));
#368=FACE_OUTER_BOUND('',#367,.T.);
#369=ADVANCED_FACE('',(#368),#350,.T.);
#370=CARTESIAN_POINT('',(21.000268554687509,0.0,-59.0));
#371=DIRECTION('',(0.0,-1.0,0.0));
#372=DIRECTION('',(0.0,0.0,-1.0));
#373=AXIS2_PLACEMENT_3D('',#370,#371,#372);
#374=PLANE('',#373);
#375=ORIENTED_EDGE('',*,*,#339,.T.);
#376=ORIENTED_EDGE('',*,*,#309,.T.);
#377=ORIENTED_EDGE('',*,*,#357,.T.);
#378=CARTESIAN_POINT('',(21.000268554687509,0.0,-59.0));
#379=VERTEX_POINT('',#378);
#380=CARTESIAN_POINT('',(20.0,0.0,-59.0));
#381=DIRECTION('',(1.0,0.0,0.0));
#382=VECTOR('',#381,1.000268554687509);
#383=LINE('',#380,#382);
#384=EDGE_CURVE('',#352,#379,#383,.T.);
#385=ORIENTED_EDGE('',*,*,#384,.T.);
#386=CARTESIAN_POINT('',(21.000268554687509,0.0,1.0));
#387=VERTEX_POINT('',#386);
#388=CARTESIAN_POINT('',(21.000268554687509,0.0,-59.0));
#389=DIRECTION('',(0.0,0.0,1.0));
#390=VECTOR('',#389,60.0);
#391=LINE('',#388,#390);
#392=EDGE_CURVE('',#379,#387,#391,.T.);
#393=ORIENTED_EDGE('',*,*,#392,.T.);
#394=CARTESIAN_POINT('',(-21.000268554687494,0.0,1.0));
#395=VERTEX_POINT('',#394);
#396=CARTESIAN_POINT('',(21.000268554687509,0.0,1.0));
#397=DIRECTION('',(-1.0,0.0,0.0));
#398=VECTOR('',#397,42.000537109375003);
#399=LINE('',#396,#398);
#400=EDGE_CURVE('',#387,#395,#399,.T.);
#401=ORIENTED_EDGE('',*,*,#400,.T.);
#402=CARTESIAN_POINT('',(-21.000268554687494,0.0,-59.0));
#403=DIRECTION('',(0.0,0.0,1.0));
#404=VECTOR('',#403,60.0);
#405=LINE('',#402,#404);
#406=EDGE_CURVE('',#231,#395,#405,.T.);
#407=ORIENTED_EDGE('',*,*,#406,.F.);
#408=ORIENTED_EDGE('',*,*,#236,.T.);
#409=EDGE_LOOP('',(#375,#376,#377,#385,#393,#401,#407,#408));
#410=FACE_OUTER_BOUND('',#409,.T.);
#411=ADVANCED_FACE('',(#410),#374,.T.);
#412=CARTESIAN_POINT('',(11.99970809827294,91.999896918402712,1.0));
#413=DIRECTION('',(0.0,1.0,0.0));
#414=DIRECTION('',(0.0,0.0,1.0));
#415=AXIS2_PLACEMENT_3D('',#412,#413,#414);
#416=PLANE('',#415);
#417=CARTESIAN_POINT('',(11.99970809827294,91.999896918402712,0.5));
#418=VERTEX_POINT('',#417);
#419=CARTESIAN_POINT('',(-11.999612087673572,91.999896918402712,0.5));
#420=VERTEX_POINT('',#419);
#421=CARTESIAN_POINT('',(11.99970809827294,91.999896918402712,0.5));
#422=DIRECTION('',(-1.0,0.0,0.0));
#423=VECTOR('',#422,23.999320185946512);
#424=LINE('',#421,#423);
#425=EDGE_CURVE('',#418,#420,#424,.T.);
#426=ORIENTED_EDGE('',*,*,#425,.F.);
#427=CARTESIAN_POINT('',(11.99970809827294,91.999896918402712,1.0));
#428=VERTEX_POINT('',#427);
#429=CARTESIAN_POINT('',(11.99970809827294,91.999896918402712,1.0));
#430=DIRECTION('',(0.0,0.0,-1.0));
#431=VECTOR('',#430,0.5);
#432=LINE('',#429,#431);
#433=EDGE_CURVE('',#428,#418,#432,.T.);
#434=ORIENTED_EDGE('',*,*,#433,.F.);
#435=CARTESIAN_POINT('',(-11.999612087673572,91.999896918402712,1.0));
#436=VERTEX_POINT('',#435);
#437=CARTESIAN_POINT('',(-11.999612087673572,91.999896918402726,1.0));
#438=DIRECTION('',(1.0,0.0,0.0));
#439=VECTOR('',#438,23.999320185946512);
#440=LINE('',#437,#439);
#441=EDGE_CURVE('',#436,#428,#440,.T.);
#442=ORIENTED_EDGE('',*,*,#441,.F.);
#443=CARTESIAN_POINT('',(-11.999612087673572,91.999896918402712,1.0));
#444=DIRECTION('',(0.0,0.0,-1.0));
#445=VECTOR('',#444,0.5);
#446=LINE('',#443,#445);
#447=EDGE_CURVE('',#436,#420,#446,.T.);
#448=ORIENTED_EDGE('',*,*,#447,.T.);
#449=EDGE_LOOP('',(#426,#434,#442,#448));
#450=FACE_OUTER_BOUND('',#449,.T.);
#451=ADVANCED_FACE('',(#450),#416,.F.);
#452=CARTESIAN_POINT('',(-11.999315583425423,91.000084001947457,1.0));
#453=DIRECTION('',(0.0,0.0,-1.0));
#454=DIRECTION('',(-0.866100958048369,0.499869113336379,0.0));
#455=AXIS2_PLACEMENT_3D('',#452,#453,#454);
#456=CYLINDRICAL_SURFACE('',#455,0.999812960420862);
#457=CARTESIAN_POINT('',(-12.865176158253734,90.500172589011612,0.5));
#458=VERTEX_POINT('',#457);
#459=CARTESIAN_POINT('',(-11.999315583425423,91.000084001947457,0.5));
#460=DIRECTION('',(0.0,0.0,1.0));
#461=DIRECTION('',(-0.866100958048369,0.499869113336379,0.0));
#462=AXIS2_PLACEMENT_3D('',#459,#460,#461);
#463=CIRCLE('',#462,0.999812960420862);
#464=EDGE_CURVE('',#420,#458,#463,.T.);
#465=ORIENTED_EDGE('',*,*,#464,.F.);
#466=ORIENTED_EDGE('',*,*,#447,.F.);
#467=CARTESIAN_POINT('',(-12.865176158253734,90.500172589011612,1.0));
#468=VERTEX_POINT('',#467);
#469=CARTESIAN_POINT('',(-11.999315583425423,91.000084001947457,1.0));
#470=DIRECTION('',(0.0,0.0,-1.0));
#471=DIRECTION('',(-0.866100958048369,0.499869113336379,0.0));
#472=AXIS2_PLACEMENT_3D('',#469,#470,#471);
#473=CIRCLE('',#472,0.999812960420862);
#474=EDGE_CURVE('',#468,#436,#473,.T.);
#475=ORIENTED_EDGE('',*,*,#474,.F.);
#476=CARTESIAN_POINT('',(-12.865176158253734,90.500172589011612,1.0));
#477=DIRECTION('',(0.0,0.0,-1.0));
#478=VECTOR('',#477,0.5);
#479=LINE('',#476,#478);
#480=EDGE_CURVE('',#468,#458,#479,.T.);
#481=ORIENTED_EDGE('',*,*,#480,.T.);
#482=EDGE_LOOP('',(#465,#466,#475,#481));
#483=FACE_OUTER_BOUND('',#482,.T.);
#484=ADVANCED_FACE('',(#483),#456,.F.);
#485=CARTESIAN_POINT('',(-12.865176158253734,90.500172589011612,1.0));
#486=DIRECTION('',(-0.866034985723942,-0.499983403226678,0.0));
#487=DIRECTION('',(0.0,0.0,1.0));
#488=AXIS2_PLACEMENT_3D('',#485,#486,#487);
#489=PLANE('',#488);
#490=CARTESIAN_POINT('',(-0.865543125411783,69.715278620084533,0.5));
#491=VERTEX_POINT('',#490);
#492=CARTESIAN_POINT('',(-12.865176158253734,90.500172589011612,0.5));
#493=DIRECTION('',(0.499983403226678,-0.866034985723942,0.0));
#494=VECTOR('',#493,24.000062712885001);
#495=LINE('',#492,#494);
#496=EDGE_CURVE('',#458,#491,#495,.T.);
#497=ORIENTED_EDGE('',*,*,#496,.F.);
#498=ORIENTED_EDGE('',*,*,#480,.F.);
#499=CARTESIAN_POINT('',(-0.865543125411783,69.715278620084533,1.0));
#500=VERTEX_POINT('',#499);
#501=CARTESIAN_POINT('',(-0.865543125411781,69.715278620084533,1.0));
#502=DIRECTION('',(-0.499983403226678,0.866034985723942,0.0));
#503=VECTOR('',#502,24.000062712885001);
#504=LINE('',#501,#503);
#505=EDGE_CURVE('',#500,#468,#504,.T.);
#506=ORIENTED_EDGE('',*,*,#505,.F.);
#507=CARTESIAN_POINT('',(-0.865543125411783,69.715278620084533,1.0));
#508=DIRECTION('',(0.0,0.0,-1.0));
#509=VECTOR('',#508,0.5);
#510=LINE('',#507,#509);
#511=EDGE_CURVE('',#500,#491,#510,.T.);
#512=ORIENTED_EDGE('',*,*,#511,.T.);
#513=EDGE_LOOP('',(#497,#498,#506,#512));
#514=FACE_OUTER_BOUND('',#513,.T.);
#515=ADVANCED_FACE('',(#514),#489,.F.);
#516=CARTESIAN_POINT('',(7.105427E-015,70.215219825473056,1.0));
#517=DIRECTION('',(0.0,0.0,-1.0));
#518=DIRECTION('',(0.000209470854883,-0.99999997806098,0.0));
#519=AXIS2_PLACEMENT_3D('',#516,#517,#518);
#520=CYLINDRICAL_SURFACE('',#519,0.99955295547206);
#521=CARTESIAN_POINT('',(0.865752495673902,69.715641276066293,0.5));
#522=VERTEX_POINT('',#521);
#523=CARTESIAN_POINT('',(7.105427E-015,70.215219825473056,0.5));
#524=DIRECTION('',(0.0,0.0,1.0));
#525=DIRECTION('',(0.000209470854883,-0.99999997806098,0.0));
#526=AXIS2_PLACEMENT_3D('',#523,#524,#525);
#527=CIRCLE('',#526,0.99955295547206);
#528=EDGE_CURVE('',#491,#522,#527,.T.);
#529=ORIENTED_EDGE('',*,*,#528,.F.);
#530=ORIENTED_EDGE('',*,*,#511,.F.);
#531=CARTESIAN_POINT('',(0.865752495673902,69.715641276066293,1.0));
#532=VERTEX_POINT('',#531);
#533=CARTESIAN_POINT('',(7.105427E-015,70.215219825473056,1.0));
#534=DIRECTION('',(0.0,0.0,-1.0));
#535=DIRECTION('',(0.000209470854883,-0.99999997806098,0.0));
#536=AXIS2_PLACEMENT_3D('',#533,#534,#535);
#537=CIRCLE('',#536,0.99955295547206);
#538=EDGE_CURVE('',#532,#500,#537,.T.);
#539=ORIENTED_EDGE('',*,*,#538,.F.);
#540=CARTESIAN_POINT('',(0.865752495673902,69.715641276066293,1.0));
#541=DIRECTION('',(0.0,0.0,-1.0));
#542=VECTOR('',#541,0.5);
#543=LINE('',#540,#542);
#544=EDGE_CURVE('',#532,#522,#543,.T.);
#545=ORIENTED_EDGE('',*,*,#544,.T.);
#546=EDGE_LOOP('',(#529,#530,#539,#545));
#547=FACE_OUTER_BOUND('',#546,.T.);
#548=ADVANCED_FACE('',(#547),#520,.F.);
#549=CARTESIAN_POINT('',(0.865752495673902,69.715641276066293,1.0));
#550=DIRECTION('',(0.866022555322581,-0.500004933648206,0.0));
#551=DIRECTION('',(0.0,0.0,-1.0));
#552=AXIS2_PLACEMENT_3D('',#549,#550,#551);
#553=PLANE('',#552);
#554=CARTESIAN_POINT('',(12.866021177471893,90.500442883004467,0.5));
#555=VERTEX_POINT('',#554);
#556=CARTESIAN_POINT('',(0.865752495673902,69.715641276066293,0.5));
#557=DIRECTION('',(0.500004933648206,0.866022555322581,0.0));
#558=VECTOR('',#557,24.000300545516541);
#559=LINE('',#556,#558);
#560=EDGE_CURVE('',#522,#555,#559,.T.);
#561=ORIENTED_EDGE('',*,*,#560,.F.);
#562=ORIENTED_EDGE('',*,*,#544,.F.);
#563=CARTESIAN_POINT('',(12.866021177471893,90.500442883004467,1.0));
#564=VERTEX_POINT('',#563);
#565=CARTESIAN_POINT('',(12.8660211774719,90.500442883004467,1.0));
#566=DIRECTION('',(-0.500004933648206,-0.866022555322581,0.0));
#567=VECTOR('',#566,24.000300545516538);
#568=LINE('',#565,#567);
#569=EDGE_CURVE('',#564,#532,#568,.T.);
#570=ORIENTED_EDGE('',*,*,#569,.F.);
#571=CARTESIAN_POINT('',(12.866021177471893,90.500442883004467,1.0));
#572=DIRECTION('',(0.0,0.0,-1.0));
#573=VECTOR('',#572,0.5);
#574=LINE('',#571,#573);
#575=EDGE_CURVE('',#564,#555,#574,.T.);
#576=ORIENTED_EDGE('',*,*,#575,.T.);
#577=EDGE_LOOP('',(#561,#562,#570,#576));
#578=FACE_OUTER_BOUND('',#577,.T.);
#579=ADVANCED_FACE('',(#578),#553,.F.);
#580=CARTESIAN_POINT('',(12.000004602522587,91.000084001947442,1.0));
#581=DIRECTION('',(0.0,0.0,-1.0));
#582=DIRECTION('',(0.86587461373981,0.500261085115497,0.0));
#583=AXIS2_PLACEMENT_3D('',#580,#581,#582);
#584=CYLINDRICAL_SURFACE('',#583,0.999812960420865);
#585=CARTESIAN_POINT('',(12.000004602522587,91.000084001947442,0.5));
#586=DIRECTION('',(0.0,0.0,1.0));
#587=DIRECTION('',(0.86587461373981,0.500261085115497,0.0));
#588=AXIS2_PLACEMENT_3D('',#585,#586,#587);
#589=CIRCLE('',#588,0.999812960420865);
#590=EDGE_CURVE('',#555,#418,#589,.T.);
#591=ORIENTED_EDGE('',*,*,#590,.F.);
#592=ORIENTED_EDGE('',*,*,#575,.F.);
#593=CARTESIAN_POINT('',(12.000004602522587,91.000084001947442,1.0));
#594=DIRECTION('',(0.0,0.0,-1.0));
#595=DIRECTION('',(0.86587461373981,0.500261085115497,0.0));
#596=AXIS2_PLACEMENT_3D('',#593,#594,#595);
#597=CIRCLE('',#596,0.999812960420865);
#598=EDGE_CURVE('',#428,#564,#597,.T.);
#599=ORIENTED_EDGE('',*,*,#598,.F.);
#600=ORIENTED_EDGE('',*,*,#433,.T.);
#601=EDGE_LOOP('',(#591,#592,#599,#600));
#602=FACE_OUTER_BOUND('',#601,.T.);
#603=ADVANCED_FACE('',(#602),#584,.F.);
#604=CARTESIAN_POINT('',(0.000259617310888,84.07186938115683,0.5));
#605=DIRECTION('',(0.0,0.0,1.0));
#606=DIRECTION('',(1.0,0.0,0.0));
#607=AXIS2_PLACEMENT_3D('',#604,#605,#606);
#608=PLANE('',#607);
#609=ORIENTED_EDGE('',*,*,#425,.T.);
#610=ORIENTED_EDGE('',*,*,#464,.T.);
#611=ORIENTED_EDGE('',*,*,#496,.T.);
#612=ORIENTED_EDGE('',*,*,#528,.T.);
#613=ORIENTED_EDGE('',*,*,#560,.T.);
#614=ORIENTED_EDGE('',*,*,#590,.T.);
#615=EDGE_LOOP('',(#609,#610,#611,#612,#613,#614));
#616=FACE_OUTER_BOUND('',#615,.T.);
#617=ADVANCED_FACE('',(#616),#608,.T.);
#618=CARTESIAN_POINT('',(21.000268554687509,97.999875217007883,-59.0));
#619=DIRECTION('',(1.0,0.0,0.0));
#620=DIRECTION('',(0.0,0.0,-1.0));
#621=AXIS2_PLACEMENT_3D('',#618,#619,#620);
#622=PLANE('',#621);
#623=CARTESIAN_POINT('',(21.000268554687509,97.999875217007883,1.0));
#624=DIRECTION('',(0.0,-1.0,0.0));
#625=VECTOR('',#624,97.999875217007883);
#626=LINE('',#623,#625);
#627=EDGE_CURVE('',#158,#387,#626,.T.);
#628=ORIENTED_EDGE('',*,*,#627,.T.);
#629=ORIENTED_EDGE('',*,*,#392,.F.);
#630=CARTESIAN_POINT('',(21.000268554687509,0.0,-59.0));
#631=DIRECTION('',(0.0,1.0,0.0));
#632=VECTOR('',#631,97.999875217007883);
#633=LINE('',#630,#632);
#634=EDGE_CURVE('',#379,#167,#633,.T.);
#635=ORIENTED_EDGE('',*,*,#634,.T.);
#636=ORIENTED_EDGE('',*,*,#172,.T.);
#637=EDGE_LOOP('',(#628,#629,#635,#636));
#638=FACE_OUTER_BOUND('',#637,.T.);
#639=ADVANCED_FACE('',(#638),#622,.T.);
#640=CARTESIAN_POINT('',(-21.000268554687494,0.0,-59.0));
#641=DIRECTION('',(-1.0,0.0,0.0));
#642=DIRECTION('',(0.0,0.0,1.0));
#643=AXIS2_PLACEMENT_3D('',#640,#641,#642);
#644=PLANE('',#643);
#645=CARTESIAN_POINT('',(-21.000268554687494,0.0,1.0));
#646=DIRECTION('',(0.0,1.0,0.0));
#647=VECTOR('',#646,97.99937648766786);
#648=LINE('',#645,#647);
#649=EDGE_CURVE('',#395,#278,#648,.T.);
#650=ORIENTED_EDGE('',*,*,#649,.T.);
#651=ORIENTED_EDGE('',*,*,#283,.F.);
#652=ORIENTED_EDGE('',*,*,#244,.T.);
#653=ORIENTED_EDGE('',*,*,#406,.T.);
#654=EDGE_LOOP('',(#650,#651,#652,#653));
#655=FACE_OUTER_BOUND('',#654,.T.);
#656=ADVANCED_FACE('',(#655),#644,.T.);
#657=CARTESIAN_POINT('',(0.000000075562049,49.693269827390338,1.0));
#658=DIRECTION('',(0.0,0.0,1.0));
#659=DIRECTION('',(1.0,0.0,0.0));
#660=AXIS2_PLACEMENT_3D('',#657,#658,#659);
#661=PLANE('',#660);
#662=ORIENTED_EDGE('',*,*,#627,.F.);
#663=ORIENTED_EDGE('',*,*,#164,.F.);
#664=ORIENTED_EDGE('',*,*,#209,.F.);
#665=ORIENTED_EDGE('',*,*,#290,.F.);
#666=ORIENTED_EDGE('',*,*,#649,.F.);
#667=ORIENTED_EDGE('',*,*,#400,.F.);
#668=EDGE_LOOP('',(#662,#663,#664,#665,#666,#667));
#669=FACE_OUTER_BOUND('',#668,.T.);
#670=ORIENTED_EDGE('',*,*,#441,.T.);
#671=ORIENTED_EDGE('',*,*,#598,.T.);
#672=ORIENTED_EDGE('',*,*,#569,.T.);
#673=ORIENTED_EDGE('',*,*,#538,.T.);
#674=ORIENTED_EDGE('',*,*,#505,.T.);
#675=ORIENTED_EDGE('',*,*,#474,.T.);
#676=EDGE_LOOP('',(#670,#671,#672,#673,#674,#675));
#677=FACE_BOUND('',#676,.T.);
#678=ADVANCED_FACE('',(#669,#677),#661,.T.);
#679=CARTESIAN_POINT('',(0.000000075562049,49.693269827390338,-59.0));
#680=DIRECTION('',(0.0,0.0,1.0));
#681=DIRECTION('',(1.0,0.0,0.0));
#682=AXIS2_PLACEMENT_3D('',#679,#680,#681);
#683=PLANE('',#682);
#684=ORIENTED_EDGE('',*,*,#365,.T.);
#685=ORIENTED_EDGE('',*,*,#179,.F.);
#686=ORIENTED_EDGE('',*,*,#634,.F.);
#687=ORIENTED_EDGE('',*,*,#384,.F.);
#688=EDGE_LOOP('',(#684,#685,#686,#687));
#689=FACE_OUTER_BOUND('',#688,.T.);
#690=ADVANCED_FACE('',(#689),#683,.F.);
#691=CLOSED_SHELL('',(#183,#214,#255,#295,#328,#345,#369,#411,#451,#484,#515,#548,#579,#603,#617,#639,#656,#678,#690));
#692=MANIFOLD_SOLID_BREP('18BD4',#691);
#693=ADVANCED_BREP_SHAPE_REPRESENTATION('ABSR1',(#692),#28);
#694=SHAPE_REPRESENTATION_RELATIONSHIP('SRRPL1','',#693,#122);
ENDSEC;
END-ISO-10303-21;
