ISO-10303-21;
HEADER;
/****************************************************************
 * Generated by software with PDElib inside                    *
 * PDElib Version v51a, created Fri 09/10/2010                  *
 * ITI Transcendata (http://www.transcendata.com/)              *
 ****************************************************************/
FILE_DESCRIPTION((''),'2;1');
FILE_NAME('3d_GEX63NE.stp','2014-06-05T08:30:28',(''),(''),'Mechanical Desktop 2011','Mechanical Desktop 2011',', , ');
FILE_SCHEMA(('CONFIG_CONTROL_DESIGN'));
ENDSEC;
DATA;
#10=(NAMED_UNIT(*)PLANE_ANGLE_UNIT()SI_UNIT($,.RADIAN.));
#11=DIMENSIONAL_EXPONENTS(0.0,0.0,0.0,0.0,0.0,0.0,0.0);
#12=PLANE_ANGLE_MEASURE_WITH_UNIT(PLANE_ANGLE_MEASURE(0.0174532925),#10);
#16=(CONVERSION_BASED_UNIT('DEGREE',#12)NAMED_UNIT(#11)PLANE_ANGLE_UNIT());
#20=(NAMED_UNIT(*)SI_UNIT($,.STERADIAN.)SOLID_ANGLE_UNIT());
#24=(LENGTH_UNIT()NAMED_UNIT(*)SI_UNIT(.MILLI.,.METRE.));
#26=UNCERTAINTY_MEASURE_WITH_UNIT(LENGTH_MEASURE(0.000001),#24,'DISTANCE_ACCURACY_VALUE','');
#28=(GEOMETRIC_REPRESENTATION_CONTEXT(3)GLOBAL_UNCERTAINTY_ASSIGNED_CONTEXT((#26))GLOBAL_UNIT_ASSIGNED_CONTEXT((#16,#20,#24))REPRESENTATION_CONTEXT('','3D'));
#29=APPLICATION_CONTEXT('CONFIGURATION CONTROLLED 3D DESIGNS OF MECHANICAL PARTS AND ASSEMBLIES');
#30=APPLICATION_PROTOCOL_DEFINITION('INTERNATIONAL STANDARD','config_control_design',1995,#29);
#31=MECHANICAL_CONTEXT('3D Mechanical Parts',#29,'mechanical');
#32=PRODUCT('Product','Product',' ',(#31));
#33=PRODUCT_RELATED_PRODUCT_CATEGORY('detail',$,(#32));
#34=PRODUCT_CATEGORY('part',$);
#35=PRODUCT_CATEGORY_RELATIONSHIP('None','None',#34,#33);
#36=PERSON('1','Design','Joe',$,$,$);
#37=ORGANIZATION($,'None','None');
#38=PERSON_AND_ORGANIZATION(#36,#37);
#39=PERSON_AND_ORGANIZATION_ROLE('design_owner');
#40=CC_DESIGN_PERSON_AND_ORGANIZATION_ASSIGNMENT(#38,#39,(#32));
#41=PRODUCT_DEFINITION_FORMATION_WITH_SPECIFIED_SOURCE('None','None',#32,.BOUGHT.);
#42=PERSON('2','Creator','Joe',$,$,$);
#43=ORGANIZATION($,'None','None');
#44=PERSON_AND_ORGANIZATION(#42,#43);
#45=PERSON_AND_ORGANIZATION_ROLE('creator');
#46=CC_DESIGN_PERSON_AND_ORGANIZATION_ASSIGNMENT(#44,#45,(#41));
#47=PERSON('3','Supplier','Joe',$,$,$);
#48=ORGANIZATION($,'None','None');
#49=PERSON_AND_ORGANIZATION(#47,#48);
#50=PERSON_AND_ORGANIZATION_ROLE('design_supplier');
#51=CC_DESIGN_PERSON_AND_ORGANIZATION_ASSIGNMENT(#49,#50,(#41));
#52=APPROVAL_STATUS('approved');
#53=APPROVAL(#52,'None');
#54=PERSON('4','Approver','Joe',$,$,$);
#55=ORGANIZATION($,'None','None');
#56=PERSON_AND_ORGANIZATION(#54,#55);
#57=APPROVAL_ROLE('approver');
#58=APPROVAL_PERSON_ORGANIZATION(#56,#53,#57);
#59=COORDINATED_UNIVERSAL_TIME_OFFSET(8,$,.EXACT.);
#60=CALENDAR_DATE(1996,29,5);
#61=LOCAL_TIME(12,0,0.0,#59);
#62=DATE_AND_TIME(#60,#61);
#63=APPROVAL_DATE_TIME(#62,#53);
#64=CC_DESIGN_APPROVAL(#53,(#41));
#65=SECURITY_CLASSIFICATION_LEVEL('unclassified');
#66=SECURITY_CLASSIFICATION('security','None',#65);
#67=CC_DESIGN_SECURITY_CLASSIFICATION(#66,(#41));
#68=APPROVAL_STATUS('approved');
#69=APPROVAL(#68,'None');
#70=PERSON('5','Approver','Joe',$,$,$);
#71=ORGANIZATION($,'None','None');
#72=PERSON_AND_ORGANIZATION(#70,#71);
#73=APPROVAL_ROLE('approver');
#74=APPROVAL_PERSON_ORGANIZATION(#72,#69,#73);
#75=COORDINATED_UNIVERSAL_TIME_OFFSET(8,$,.EXACT.);
#76=CALENDAR_DATE(1996,29,5);
#77=LOCAL_TIME(12,0,0.0,#75);
#78=DATE_AND_TIME(#76,#77);
#79=APPROVAL_DATE_TIME(#78,#69);
#80=CC_DESIGN_APPROVAL(#69,(#66));
#81=PERSON('6','Classifier','Joe',$,$,$);
#82=ORGANIZATION($,'None','None');
#83=PERSON_AND_ORGANIZATION(#81,#82);
#84=PERSON_AND_ORGANIZATION_ROLE('classification_officer');
#85=CC_DESIGN_PERSON_AND_ORGANIZATION_ASSIGNMENT(#83,#84,(#66));
#86=COORDINATED_UNIVERSAL_TIME_OFFSET(8,$,.EXACT.);
#87=CALENDAR_DATE(1996,29,5);
#88=LOCAL_TIME(12,0,0.0,#86);
#89=DATE_AND_TIME(#87,#88);
#90=DATE_TIME_ROLE('classification_date');
#91=CC_DESIGN_DATE_AND_TIME_ASSIGNMENT(#89,#90,(#66));
#92=DESIGN_CONTEXT('Design Context',#29,'design');
#93=PRODUCT_DEFINITION('None','None',#41,#92);
#94=PERSON('7','Creator','Joe',$,$,$);
#95=ORGANIZATION($,'None','None');
#96=PERSON_AND_ORGANIZATION(#94,#95);
#97=PERSON_AND_ORGANIZATION_ROLE('creator');
#98=CC_DESIGN_PERSON_AND_ORGANIZATION_ASSIGNMENT(#96,#97,(#93));
#99=COORDINATED_UNIVERSAL_TIME_OFFSET(8,$,.EXACT.);
#100=CALENDAR_DATE(1996,29,5);
#101=LOCAL_TIME(12,0,0.0,#99);
#102=DATE_AND_TIME(#100,#101);
#103=DATE_TIME_ROLE('creation_date');
#104=CC_DESIGN_DATE_AND_TIME_ASSIGNMENT(#102,#103,(#93));
#105=APPROVAL_STATUS('approved');
#106=APPROVAL(#105,'None');
#107=PERSON('8','Approver','Joe',$,$,$);
#108=ORGANIZATION($,'None','None');
#109=PERSON_AND_ORGANIZATION(#107,#108);
#110=APPROVAL_ROLE('approver');
#111=APPROVAL_PERSON_ORGANIZATION(#109,#106,#110);
#112=COORDINATED_UNIVERSAL_TIME_OFFSET(8,$,.EXACT.);
#113=CALENDAR_DATE(1996,29,5);
#114=LOCAL_TIME(12,0,0.0,#112);
#115=DATE_AND_TIME(#113,#114);
#116=APPROVAL_DATE_TIME(#115,#106);
#117=CC_DESIGN_APPROVAL(#106,(#93));
#118=CARTESIAN_POINT('NONE',(0.0,0.0,0.0));
#119=DIRECTION('NONE',(0.0,0.0,1.0));
#120=DIRECTION('NONE',(1.0,0.0,0.0));
#121=AXIS2_PLACEMENT_3D('NONE',#118,#119,#120);
#122=SHAPE_REPRESENTATION('SR1',(#121),#28);
#123=PRODUCT_DEFINITION_SHAPE('PDS1','Test Part',#93);
#124=SHAPE_DEFINITION_REPRESENTATION(#123,#122);
#125=CARTESIAN_POINT('',(0.0,0.0,6.700000000000003));
#126=DIRECTION('',(0.0,0.0,1.0));
#127=DIRECTION('',(1.0,0.0,0.0));
#128=AXIS2_PLACEMENT_3D('',#125,#126,#127);
#129=CYLINDRICAL_SURFACE('',#128,29.000124782986148);
#130=CARTESIAN_POINT('',(29.000124782986148,0.0,13.400000000000006));
#131=VERTEX_POINT('',#130);
#132=CARTESIAN_POINT('',(29.000124782986148,0.0,0.0));
#133=VERTEX_POINT('',#132);
#134=CARTESIAN_POINT('',(29.000124782986148,0.0,13.400000000000006));
#135=DIRECTION('',(0.0,0.0,-1.0));
#136=VECTOR('',#135,13.400000000000006);
#137=LINE('',#134,#136);
#138=EDGE_CURVE('',#131,#133,#137,.T.);
#139=ORIENTED_EDGE('',*,*,#138,.F.);
#140=CARTESIAN_POINT('',(-29.000124782986148,-3.551374E-015,13.400000000000006));
#141=VERTEX_POINT('',#140);
#142=CARTESIAN_POINT('',(0.0,0.0,13.400000000000006));
#143=DIRECTION('',(0.0,0.0,1.0));
#144=DIRECTION('',(1.0,0.0,0.0));
#145=AXIS2_PLACEMENT_3D('',#142,#143,#144);
#146=CIRCLE('',#145,29.000124782986148);
#147=EDGE_CURVE('',#141,#131,#146,.T.);
#148=ORIENTED_EDGE('',*,*,#147,.F.);
#149=CARTESIAN_POINT('',(-29.000124782986148,-3.551374E-015,0.0));
#150=VERTEX_POINT('',#149);
#151=CARTESIAN_POINT('',(-29.000124782986148,-3.551374E-015,13.400000000000006));
#152=DIRECTION('',(0.0,0.0,-1.0));
#153=VECTOR('',#152,13.400000000000006);
#154=LINE('',#151,#153);
#155=EDGE_CURVE('',#141,#150,#154,.T.);
#156=ORIENTED_EDGE('',*,*,#155,.T.);
#157=CARTESIAN_POINT('',(0.0,0.0,0.0));
#158=DIRECTION('',(0.0,0.0,-1.0));
#159=DIRECTION('',(1.0,0.0,0.0));
#160=AXIS2_PLACEMENT_3D('',#157,#158,#159);
#161=CIRCLE('',#160,29.000124782986148);
#162=EDGE_CURVE('',#133,#150,#161,.T.);
#163=ORIENTED_EDGE('',*,*,#162,.F.);
#164=EDGE_LOOP('',(#139,#148,#156,#163));
#165=FACE_OUTER_BOUND('',#164,.T.);
#166=ADVANCED_FACE('',(#165),#129,.T.);
#167=CARTESIAN_POINT('',(0.0,0.0,6.700000000000003));
#168=DIRECTION('',(0.0,0.0,1.0));
#169=DIRECTION('',(1.0,0.0,0.0));
#170=AXIS2_PLACEMENT_3D('',#167,#168,#169);
#171=CYLINDRICAL_SURFACE('',#170,29.000124782986148);
#172=ORIENTED_EDGE('',*,*,#138,.T.);
#173=CARTESIAN_POINT('',(0.0,0.0,0.0));
#174=DIRECTION('',(0.0,0.0,-1.0));
#175=DIRECTION('',(1.0,0.0,0.0));
#176=AXIS2_PLACEMENT_3D('',#173,#174,#175);
#177=CIRCLE('',#176,29.000124782986148);
#178=EDGE_CURVE('',#150,#133,#177,.T.);
#179=ORIENTED_EDGE('',*,*,#178,.F.);
#180=ORIENTED_EDGE('',*,*,#155,.F.);
#181=CARTESIAN_POINT('',(0.0,0.0,13.400000000000006));
#182=DIRECTION('',(0.0,0.0,1.0));
#183=DIRECTION('',(1.0,0.0,0.0));
#184=AXIS2_PLACEMENT_3D('',#181,#182,#183);
#185=CIRCLE('',#184,29.000124782986148);
#186=EDGE_CURVE('',#131,#141,#185,.T.);
#187=ORIENTED_EDGE('',*,*,#186,.F.);
#188=EDGE_LOOP('',(#172,#179,#180,#187));
#189=FACE_OUTER_BOUND('',#188,.T.);
#190=ADVANCED_FACE('',(#189),#171,.T.);
#191=CARTESIAN_POINT('',(0.0,0.0,0.0));
#192=DIRECTION('',(0.0,0.0,-1.0));
#193=DIRECTION('',(-1.0,0.0,0.0));
#194=AXIS2_PLACEMENT_3D('',#191,#192,#193);
#195=PLANE('',#194);
#196=ORIENTED_EDGE('',*,*,#162,.T.);
#197=ORIENTED_EDGE('',*,*,#178,.T.);
#198=EDGE_LOOP('',(#196,#197));
#199=FACE_OUTER_BOUND('',#198,.T.);
#200=ADVANCED_FACE('',(#199),#195,.T.);
#201=CARTESIAN_POINT('',(0.0,0.0,13.400000000000006));
#202=DIRECTION('',(0.0,0.0,1.0));
#203=DIRECTION('',(1.0,0.0,0.0));
#204=AXIS2_PLACEMENT_3D('',#201,#202,#203);
#205=PLANE('',#204);
#206=ORIENTED_EDGE('',*,*,#186,.T.);
#207=ORIENTED_EDGE('',*,*,#147,.T.);
#208=EDGE_LOOP('',(#206,#207));
#209=FACE_OUTER_BOUND('',#208,.T.);
#210=ADVANCED_FACE('',(#209),#205,.T.);
#211=CLOSED_SHELL('',(#166,#190,#200,#210));
#212=MANIFOLD_SOLID_BREP('418B',#211);
#213=CARTESIAN_POINT('',(-29.000124782986148,-9.5,13.400000000000006));
#214=DIRECTION('',(0.0,0.0,-1.0));
#215=DIRECTION('',(1.0,0.0,0.0));
#216=AXIS2_PLACEMENT_3D('',#213,#214,#215);
#217=PLANE('',#216);
#218=CARTESIAN_POINT('',(19.500124782986148,-9.5,13.400000000000006));
#219=VERTEX_POINT('',#218);
#220=CARTESIAN_POINT('',(19.500124782986148,9.5,13.400000000000006));
#221=VERTEX_POINT('',#220);
#222=CARTESIAN_POINT('',(19.500124782986148,2.080518E-016,13.400000000000006));
#223=DIRECTION('',(0.0,0.0,1.0));
#224=DIRECTION('',(0.707106781186548,0.707106781186548,0.0));
#225=AXIS2_PLACEMENT_3D('',#222,#223,#224);
#226=CIRCLE('',#225,9.499999999999998);
#227=EDGE_CURVE('',#219,#221,#226,.T.);
#228=ORIENTED_EDGE('',*,*,#227,.F.);
#229=CARTESIAN_POINT('',(-19.420625474369238,-9.5,13.400000000000006));
#230=VERTEX_POINT('',#229);
#231=CARTESIAN_POINT('',(19.500124782986148,-9.5,13.400000000000006));
#232=DIRECTION('',(-1.0,0.0,0.0));
#233=VECTOR('',#232,38.920750257355387);
#234=LINE('',#231,#233);
#235=EDGE_CURVE('',#219,#230,#234,.T.);
#236=ORIENTED_EDGE('',*,*,#235,.T.);
#237=CARTESIAN_POINT('',(-19.420625474369238,9.5,13.400000000000006));
#238=VERTEX_POINT('',#237);
#239=CARTESIAN_POINT('',(-19.420625474369231,-4.484581E-016,13.400000000000006));
#240=DIRECTION('',(0.0,0.0,1.0));
#241=DIRECTION('',(-1.0,0.0,0.0));
#242=AXIS2_PLACEMENT_3D('',#239,#240,#241);
#243=ELLIPSE('',#242,9.579499308616915,9.5);
#244=EDGE_CURVE('',#238,#230,#243,.T.);
#245=ORIENTED_EDGE('',*,*,#244,.F.);
#246=CARTESIAN_POINT('',(-19.420625474369238,9.5,13.400000000000006));
#247=DIRECTION('',(1.0,0.0,0.0));
#248=VECTOR('',#247,38.920750257355387);
#249=LINE('',#246,#248);
#250=EDGE_CURVE('',#238,#221,#249,.T.);
#251=ORIENTED_EDGE('',*,*,#250,.T.);
#252=EDGE_LOOP('',(#228,#236,#245,#251));
#253=FACE_OUTER_BOUND('',#252,.T.);
#254=ADVANCED_FACE('',(#253),#217,.T.);
#255=CARTESIAN_POINT('',(19.500124782986148,-1.776357E-015,29.604461549679286));
#256=DIRECTION('',(0.0,-1.224606E-016,1.0));
#257=DIRECTION('',(0.707106781186548,0.707106781186548,0.0));
#258=AXIS2_PLACEMENT_3D('',#255,#256,#257);
#259=CYLINDRICAL_SURFACE('',#258,9.499999999999998);
#260=ORIENTED_EDGE('',*,*,#227,.T.);
#261=CARTESIAN_POINT('',(19.500124782986148,9.499999999999998,36.792430625931942));
#262=VERTEX_POINT('',#261);
#263=CARTESIAN_POINT('',(19.500124782986148,9.5,13.400000000000006));
#264=DIRECTION('',(0.0,0.0,1.0));
#265=VECTOR('',#264,23.392430625931937);
#266=LINE('',#263,#265);
#267=EDGE_CURVE('',#221,#262,#266,.T.);
#268=ORIENTED_EDGE('',*,*,#267,.T.);
#269=CARTESIAN_POINT('',(19.500124782986148,-9.500000000000002,36.792430625931942));
#270=VERTEX_POINT('',#269);
#271=CARTESIAN_POINT('',(19.500124782986148,-2.656600E-015,36.792430625931942));
#272=DIRECTION('',(-0.044897790834333,-1.223371E-016,0.998991585739438));
#273=DIRECTION('',(0.998991585739438,9.339819E-017,0.044897790834333));
#274=AXIS2_PLACEMENT_3D('',#271,#272,#273);
#275=ELLIPSE('',#274,9.509589605770552,9.499999999999998);
#276=EDGE_CURVE('',#262,#270,#275,.F.);
#277=ORIENTED_EDGE('',*,*,#276,.T.);
#278=CARTESIAN_POINT('',(19.500124782986148,-9.500000000000002,36.792430625931942));
#279=DIRECTION('',(0.0,0.0,-1.0));
#280=VECTOR('',#279,23.392430625931937);
#281=LINE('',#278,#280);
#282=EDGE_CURVE('',#270,#219,#281,.T.);
#283=ORIENTED_EDGE('',*,*,#282,.T.);
#284=EDGE_LOOP('',(#260,#268,#277,#283));
#285=FACE_OUTER_BOUND('',#284,.T.);
#286=ADVANCED_FACE('',(#285),#259,.T.);
#287=CARTESIAN_POINT('',(54.999571397569497,-9.500000000000007,65.899810112847177));
#288=DIRECTION('',(-0.173651316588142,-1.206001E-016,0.98480719953055));
#289=DIRECTION('',(-0.98480719953055,2.126545E-017,-0.173651316588142));
#290=AXIS2_PLACEMENT_3D('',#287,#288,#289);
#291=PLANE('',#290);
#292=CARTESIAN_POINT('',(-23.276443142574326,3.581704727355237,52.097379557254101));
#293=VERTEX_POINT('',#292);
#294=CARTESIAN_POINT('',(-14.196299552401152,9.499999999999996,53.698483702303598));
#295=VERTEX_POINT('',#294);
#296=CARTESIAN_POINT('',(-14.196299552401152,-5.383436E-015,53.698483702303598));
#297=DIRECTION('',(0.173651316588142,1.206001E-016,-0.98480719953055));
#298=DIRECTION('',(-0.98480719953055,-1.249090E-015,-0.173651316588142));
#299=AXIS2_PLACEMENT_3D('',#296,#297,#298);
#300=ELLIPSE('',#299,9.954847723616622,9.5);
#301=EDGE_CURVE('',#293,#295,#300,.T.);
#302=ORIENTED_EDGE('',*,*,#301,.F.);
#303=CARTESIAN_POINT('',(-23.276443142574326,-3.581704727355247,52.097379557254101));
#304=VERTEX_POINT('',#303);
#305=CARTESIAN_POINT('',(-23.276443142574323,-3.581704727355247,52.097379557254101));
#306=DIRECTION('',(0.0,1.0,0.0));
#307=VECTOR('',#306,7.163409454710484);
#308=LINE('',#305,#307);
#309=EDGE_CURVE('',#304,#293,#308,.T.);
#310=ORIENTED_EDGE('',*,*,#309,.F.);
#311=CARTESIAN_POINT('',(-14.196299552401152,-9.500000000000005,53.698483702303598));
#312=VERTEX_POINT('',#311);
#313=CARTESIAN_POINT('',(-14.196299552401152,-5.383436E-015,53.698483702303598));
#314=DIRECTION('',(0.173651316588142,1.206001E-016,-0.98480719953055));
#315=DIRECTION('',(-0.98480719953055,1.249090E-015,-0.173651316588142));
#316=AXIS2_PLACEMENT_3D('',#313,#314,#315);
#317=ELLIPSE('',#316,9.954847723616622,9.5);
#318=EDGE_CURVE('',#312,#304,#317,.T.);
#319=ORIENTED_EDGE('',*,*,#318,.F.);
#320=CARTESIAN_POINT('',(54.999571397569497,-9.500000000000007,65.899810112847177));
#321=VERTEX_POINT('',#320);
#322=CARTESIAN_POINT('',(-14.196299552401152,-9.500000000000005,53.698483702303598));
#323=DIRECTION('',(0.98480719953055,-2.528141E-017,0.173651316588142));
#324=VECTOR('',#323,70.263368284630502);
#325=LINE('',#322,#324);
#326=EDGE_CURVE('',#312,#321,#325,.T.);
#327=ORIENTED_EDGE('',*,*,#326,.T.);
#328=CARTESIAN_POINT('',(54.999571397569497,9.499999999999993,65.899810112847177));
#329=VERTEX_POINT('',#328);
#330=CARTESIAN_POINT('',(54.999571397569497,-9.500000000000007,65.899810112847177));
#331=DIRECTION('',(0.0,1.0,0.0));
#332=VECTOR('',#331,19.0);
#333=LINE('',#330,#332);
#334=EDGE_CURVE('',#321,#329,#333,.T.);
#335=ORIENTED_EDGE('',*,*,#334,.T.);
#336=CARTESIAN_POINT('',(54.999571397569497,9.499999999999995,65.899810112847177));
#337=DIRECTION('',(-0.98480719953055,2.528141E-017,-0.173651316588142));
#338=VECTOR('',#337,70.263368284630502);
#339=LINE('',#336,#338);
#340=EDGE_CURVE('',#329,#295,#339,.T.);
#341=ORIENTED_EDGE('',*,*,#340,.T.);
#342=EDGE_LOOP('',(#302,#310,#319,#327,#335,#341));
#343=FACE_OUTER_BOUND('',#342,.T.);
#344=ADVANCED_FACE('',(#343),#291,.T.);
#345=CARTESIAN_POINT('',(-23.1037927879633,-9.500000000000005,51.113669998345699));
#346=DIRECTION('',(0.0,1.0,1.224606E-016));
#347=DIRECTION('',(-0.722614547287017,-8.465106E-017,0.691251196056238));
#348=AXIS2_PLACEMENT_3D('',#345,#346,#347);
#349=CYLINDRICAL_SURFACE('',#348,0.998745533774769);
#350=CARTESIAN_POINT('',(-24.094190644046236,-5.329071E-015,51.242529332122416));
#351=VERTEX_POINT('',#350);
#352=CARTESIAN_POINT('',(-24.094249727386572,-5.821232E-015,51.242073585474373));
#353=CARTESIAN_POINT('',(-24.093636207029803,0.014717736579103,51.246806050574669));
#354=CARTESIAN_POINT('',(-24.092976173474721,0.029688795624058,51.251625150966866));
#355=CARTESIAN_POINT('',(-24.069786987423576,0.530563727509423,51.412286482949391));
#356=CARTESIAN_POINT('',(-24.010024962576345,1.01944485163118,51.564252967853662));
#357=CARTESIAN_POINT('',(-23.813993707114296,2.01336900708348,51.836621160685766));
#358=CARTESIAN_POINT('',(-23.672926058381087,2.522233534132408,51.956875189524517));
#359=CARTESIAN_POINT('',(-23.427553319708053,3.208025112962122,52.061318026561409));
#360=CARTESIAN_POINT('',(-23.354466536064255,3.395945412472869,52.083685711919365));
#361=CARTESIAN_POINT('',(-23.276443142574326,3.581704727355237,52.097379557254101));
#362=B_SPLINE_CURVE_WITH_KNOTS('',3,(#352,#353,#354,#355,#356,#357,#358,#359,#360,#361),.UNSPECIFIED.,.F.,.U.,(4,2,2,2,4),(-0.046416156976765,0.0,1.533150079056894,3.14339573081014,3.753150194940905),.UNSPECIFIED.);
#363=EDGE_CURVE('',#351,#293,#362,.T.);
#364=ORIENTED_EDGE('',*,*,#363,.F.);
#365=CARTESIAN_POINT('',(-23.276443142574255,-3.581704727355425,52.097379557254101));
#366=CARTESIAN_POINT('',(-23.363011757256785,-3.375600816278834,52.082185944578725));
#367=CARTESIAN_POINT('',(-23.443519225335468,-3.166778614736743,52.05632025720076));
#368=CARTESIAN_POINT('',(-23.710950161211656,-2.404899092178787,51.934794861293504));
#369=CARTESIAN_POINT('',(-23.859248799007339,-1.838726480777852,51.793755980206988));
#370=CARTESIAN_POINT('',(-23.999493258463115,-1.029148638700759,51.562879066097558));
#371=CARTESIAN_POINT('',(-24.032548078788793,-0.785504949488211,51.489450544938457));
#372=CARTESIAN_POINT('',(-24.065482611249418,-0.449120516315164,51.384887362548923));
#373=CARTESIAN_POINT('',(-24.073233422377928,-0.356345173596061,51.355712549347771));
#374=CARTESIAN_POINT('',(-24.082699478326195,-0.219368164674099,51.312265572908473));
#375=CARTESIAN_POINT('',(-24.085450184407641,-0.17516610120528,51.298188051850694));
#376=CARTESIAN_POINT('',(-24.089105594535102,-0.10910111833604,51.277076195355711));
#377=CARTESIAN_POINT('',(-24.090240654034002,-0.087238965836135,51.270078039559444));
#378=CARTESIAN_POINT('',(-24.092948484646875,-0.031401215693297,51.25217983532076));
#379=CARTESIAN_POINT('',(-24.094025920902322,-0.006124083284347,51.243793604168225));
#380=CARTESIAN_POINT('',(-24.094177143034376,-0.001045373366048,51.242633087631738));
#381=CARTESIAN_POINT('',(-24.094184617575266,-0.00071865991521,51.242575645409843));
#382=CARTESIAN_POINT('',(-24.094189029143052,-0.000339929492744,51.242541743631598));
#383=CARTESIAN_POINT('',(-24.094189656701555,-0.000269115033002,51.242536920551089));
#384=CARTESIAN_POINT('',(-24.094190321281452,-0.000154282842006,51.242531812845591));
#385=CARTESIAN_POINT('',(-24.094190491775347,-0.000110634072495,51.242530502455068));
#386=CARTESIAN_POINT('',(-24.094190622037065,-0.000044591612843,51.242529501282647));
#387=CARTESIAN_POINT('',(-24.094190644046236,-0.000022297873348,51.242529332122416));
#388=CARTESIAN_POINT('',(-24.094190644046236,-5.329071E-015,51.242529332122416));
#389=B_SPLINE_CURVE_WITH_KNOTS('',3,(#365,#366,#367,#368,#369,#370,#371,#372,#373,#374,#375,#376,#377,#378,#379,#380,#381,#382,#383,#384,#385,#386,#387,#388),.UNSPECIFIED.,.F.,.U.,(4,2,2,2,2,2,2,2,2,2,2,4),(0.0,0.672186088577593,2.447049782085673,3.208362404271565,3.498157303012718,3.636214596755774,3.704494923303837,3.810616972395133,3.81935845390331,3.821372036890243,3.822608817333716,3.82323968462368),.UNSPECIFIED.);
#390=EDGE_CURVE('',#304,#351,#389,.T.);
#391=ORIENTED_EDGE('',*,*,#390,.F.);
#392=ORIENTED_EDGE('',*,*,#309,.T.);
#393=EDGE_LOOP('',(#364,#391,#392));
#394=FACE_OUTER_BOUND('',#393,.T.);
#395=ADVANCED_FACE('',(#394),#349,.T.);
#396=CARTESIAN_POINT('',(-14.253852599269827,-5.329071E-015,53.254541161984157));
#397=DIRECTION('',(0.128564881022903,-1.214443E-016,0.991701099811615));
#398=DIRECTION('',(-0.70123857258695,-0.707106781186548,0.090909099193737));
#399=AXIS2_PLACEMENT_3D('',#396,#397,#398);
#400=CYLINDRICAL_SURFACE('',#399,9.5);
#401=ORIENTED_EDGE('',*,*,#390,.T.);
#402=ORIENTED_EDGE('',*,*,#363,.T.);
#403=ORIENTED_EDGE('',*,*,#301,.T.);
#404=CARTESIAN_POINT('',(-14.196299552401152,9.499999999999995,53.698483702303598));
#405=DIRECTION('',(-0.128564881022903,1.311425E-016,-0.991701099811615));
#406=VECTOR('',#405,40.635715448897614);
#407=LINE('',#404,#406);
#408=EDGE_CURVE('',#295,#238,#407,.T.);
#409=ORIENTED_EDGE('',*,*,#408,.T.);
#410=ORIENTED_EDGE('',*,*,#244,.T.);
#411=CARTESIAN_POINT('',(-19.420625474369235,-9.5,13.399999999999999));
#412=DIRECTION('',(0.128564881022903,-1.311425E-016,0.991701099811615));
#413=VECTOR('',#412,40.635715448897614);
#414=LINE('',#411,#413);
#415=EDGE_CURVE('',#230,#312,#414,.T.);
#416=ORIENTED_EDGE('',*,*,#415,.T.);
#417=ORIENTED_EDGE('',*,*,#318,.T.);
#418=EDGE_LOOP('',(#401,#402,#403,#409,#410,#416,#417));
#419=FACE_OUTER_BOUND('',#418,.T.);
#420=ADVANCED_FACE('',(#419),#400,.T.);
#421=CARTESIAN_POINT('',(29.000124782986148,-9.500000000000004,37.219390190972177));
#422=DIRECTION('',(0.044897790834333,1.223371E-016,-0.998991585739438));
#423=DIRECTION('',(0.998991585739438,-5.498212E-018,0.044897790834333));
#424=AXIS2_PLACEMENT_3D('',#421,#422,#423);
#425=PLANE('',#424);
#426=CARTESIAN_POINT('',(175.0884277343749,9.499999999999996,43.785053168402811));
#427=VERTEX_POINT('',#426);
#428=CARTESIAN_POINT('',(19.500124782986148,9.499999999999996,36.792430625931942));
#429=DIRECTION('',(0.998991585739438,0.0,0.044897790834333));
#430=VECTOR('',#429,155.74535879221119);
#431=LINE('',#428,#430);
#432=EDGE_CURVE('',#262,#427,#431,.T.);
#433=ORIENTED_EDGE('',*,*,#432,.T.);
#434=CARTESIAN_POINT('',(175.0884277343749,-9.500000000000004,43.785053168402811));
#435=VERTEX_POINT('',#434);
#436=CARTESIAN_POINT('',(175.0884277343749,-9.500000000000004,43.785053168402811));
#437=DIRECTION('',(0.0,1.0,0.0));
#438=VECTOR('',#437,19.0);
#439=LINE('',#436,#438);
#440=EDGE_CURVE('',#435,#427,#439,.T.);
#441=ORIENTED_EDGE('',*,*,#440,.F.);
#442=CARTESIAN_POINT('',(175.0884277343749,-9.500000000000004,43.785053168402811));
#443=DIRECTION('',(-0.998991585739438,0.0,-0.044897790834333));
#444=VECTOR('',#443,155.74535879221119);
#445=LINE('',#442,#444);
#446=EDGE_CURVE('',#435,#270,#445,.T.);
#447=ORIENTED_EDGE('',*,*,#446,.T.);
#448=ORIENTED_EDGE('',*,*,#276,.F.);
#449=EDGE_LOOP('',(#433,#441,#447,#448));
#450=FACE_OUTER_BOUND('',#449,.T.);
#451=ADVANCED_FACE('',(#450),#425,.T.);
#452=CARTESIAN_POINT('',(174.69620775836168,-9.500000000000004,45.048103510633837));
#453=DIRECTION('',(0.0,1.0,1.224606E-016));
#454=DIRECTION('',(0.752360741001494,8.067111E-017,-0.658751330472799));
#455=AXIS2_PLACEMENT_3D('',#452,#453,#454);
#456=CYLINDRICAL_SURFACE('',#455,1.322547797470354);
#457=CARTESIAN_POINT('',(176.00000000000009,9.499999999999996,44.826161024306401));
#458=VERTEX_POINT('',#457);
#459=CARTESIAN_POINT('',(174.69620775836168,9.499999999999996,45.048103510633837));
#460=DIRECTION('',(6.069377E-017,-1.0,-5.314220E-017));
#461=DIRECTION('',(0.752360741001494,8.067111E-017,-0.658751330472799));
#462=AXIS2_PLACEMENT_3D('',#459,#460,#461);
#463=CIRCLE('',#462,1.322547797470354);
#464=EDGE_CURVE('',#427,#458,#463,.T.);
#465=ORIENTED_EDGE('',*,*,#464,.T.);
#466=CARTESIAN_POINT('',(176.00000000000009,-9.500000000000004,44.826161024306401));
#467=VERTEX_POINT('',#466);
#468=CARTESIAN_POINT('',(176.00000000000009,-9.500000000000004,44.826161024306401));
#469=DIRECTION('',(0.0,1.0,0.0));
#470=VECTOR('',#469,19.0);
#471=LINE('',#468,#470);
#472=EDGE_CURVE('',#467,#458,#471,.T.);
#473=ORIENTED_EDGE('',*,*,#472,.F.);
#474=CARTESIAN_POINT('',(174.69620775836168,-9.500000000000004,45.048103510633837));
#475=DIRECTION('',(-6.069377E-017,1.0,5.314220E-017));
#476=DIRECTION('',(0.752360741001494,8.067111E-017,-0.658751330472799));
#477=AXIS2_PLACEMENT_3D('',#474,#475,#476);
#478=CIRCLE('',#477,1.322547797470354);
#479=EDGE_CURVE('',#467,#435,#478,.T.);
#480=ORIENTED_EDGE('',*,*,#479,.T.);
#481=ORIENTED_EDGE('',*,*,#440,.T.);
#482=EDGE_LOOP('',(#465,#473,#480,#481));
#483=FACE_OUTER_BOUND('',#482,.T.);
#484=ADVANCED_FACE('',(#483),#456,.T.);
#485=CARTESIAN_POINT('',(176.00000000000009,-9.500000000000004,44.826161024306401));
#486=DIRECTION('',(0.998983158321119,-5.521127E-018,0.045084913116945));
#487=DIRECTION('',(-0.045084913116945,-1.223361E-016,0.998983158321119));
#488=AXIS2_PLACEMENT_3D('',#485,#486,#487);
#489=PLANE('',#488);
#490=CARTESIAN_POINT('',(175.09793079219875,9.499999999999996,64.814043531612782));
#491=VERTEX_POINT('',#490);
#492=CARTESIAN_POINT('',(176.00000000000009,9.499999999999998,44.826161024306401));
#493=DIRECTION('',(-0.045084913116945,-8.878132E-017,0.998983158321119));
#494=VECTOR('',#493,20.008227707159566);
#495=LINE('',#492,#494);
#496=EDGE_CURVE('',#458,#491,#495,.T.);
#497=ORIENTED_EDGE('',*,*,#496,.T.);
#498=CARTESIAN_POINT('',(175.09793079219875,-9.500000000000007,64.814043531612782));
#499=VERTEX_POINT('',#498);
#500=CARTESIAN_POINT('',(175.09793079219875,-9.500000000000007,64.814043531612782));
#501=DIRECTION('',(0.0,1.0,0.0));
#502=VECTOR('',#501,19.000000000000004);
#503=LINE('',#500,#502);
#504=EDGE_CURVE('',#499,#491,#503,.T.);
#505=ORIENTED_EDGE('',*,*,#504,.F.);
#506=CARTESIAN_POINT('',(175.09793079219875,-9.500000000000007,64.814043531612782));
#507=DIRECTION('',(0.045084913116945,8.878132E-017,-0.998983158321119));
#508=VECTOR('',#507,20.008227707159566);
#509=LINE('',#506,#508);
#510=EDGE_CURVE('',#499,#467,#509,.T.);
#511=ORIENTED_EDGE('',*,*,#510,.T.);
#512=ORIENTED_EDGE('',*,*,#472,.T.);
#513=EDGE_LOOP('',(#497,#505,#511,#512));
#514=FACE_OUTER_BOUND('',#513,.T.);
#515=ADVANCED_FACE('',(#514),#489,.T.);
#516=CARTESIAN_POINT('',(174.02944372383033,-9.500000000000007,64.833074155494614));
#517=DIRECTION('',(0.0,1.0,1.224606E-016));
#518=DIRECTION('',(0.734061508709871,-8.316093E-017,0.679082985673023));
#519=AXIS2_PLACEMENT_3D('',#516,#517,#518);
#520=CYLINDRICAL_SURFACE('',#519,1.068656530376259);
#521=CARTESIAN_POINT('',(174.09348415798613,9.499999999999993,65.899810112847206));
#522=VERTEX_POINT('',#521);
#523=CARTESIAN_POINT('',(174.02944372383033,9.499999999999996,64.833074155494614));
#524=DIRECTION('',(-6.104524E-017,-1.0,-5.647318E-017));
#525=DIRECTION('',(0.734061508709871,-8.316093E-017,0.679082985673023));
#526=AXIS2_PLACEMENT_3D('',#523,#524,#525);
#527=CIRCLE('',#526,1.068656530376259);
#528=EDGE_CURVE('',#491,#522,#527,.T.);
#529=ORIENTED_EDGE('',*,*,#528,.T.);
#530=CARTESIAN_POINT('',(174.09348415798613,-9.500000000000007,65.899810112847206));
#531=VERTEX_POINT('',#530);
#532=CARTESIAN_POINT('',(174.09348415798613,-9.500000000000007,65.899810112847206));
#533=DIRECTION('',(0.0,1.0,0.0));
#534=VECTOR('',#533,19.0);
#535=LINE('',#532,#534);
#536=EDGE_CURVE('',#531,#522,#535,.T.);
#537=ORIENTED_EDGE('',*,*,#536,.F.);
#538=CARTESIAN_POINT('',(174.02944372383033,-9.500000000000007,64.833074155494614));
#539=DIRECTION('',(6.104524E-017,1.0,5.647318E-017));
#540=DIRECTION('',(0.734061508709871,-8.316093E-017,0.679082985673023));
#541=AXIS2_PLACEMENT_3D('',#538,#539,#540);
#542=CIRCLE('',#541,1.068656530376259);
#543=EDGE_CURVE('',#531,#499,#542,.T.);
#544=ORIENTED_EDGE('',*,*,#543,.T.);
#545=ORIENTED_EDGE('',*,*,#504,.T.);
#546=EDGE_LOOP('',(#529,#537,#544,#545));
#547=FACE_OUTER_BOUND('',#546,.T.);
#548=ADVANCED_FACE('',(#547),#520,.T.);
#549=CARTESIAN_POINT('',(174.09348415798613,-9.500000000000007,65.899810112847206));
#550=DIRECTION('',(0.0,0.0,1.0));
#551=DIRECTION('',(-1.0,0.0,0.0));
#552=AXIS2_PLACEMENT_3D('',#549,#550,#551);
#553=PLANE('',#552);
#554=CARTESIAN_POINT('',(174.09348415798613,9.499999999999993,65.89981011284722));
#555=DIRECTION('',(-1.0,0.0,0.0));
#556=VECTOR('',#555,119.09391276041663);
#557=LINE('',#554,#556);
#558=EDGE_CURVE('',#522,#329,#557,.T.);
#559=ORIENTED_EDGE('',*,*,#558,.T.);
#560=ORIENTED_EDGE('',*,*,#334,.F.);
#561=CARTESIAN_POINT('',(54.999571397569497,-9.500000000000007,65.899810112847177));
#562=DIRECTION('',(1.0,0.0,0.0));
#563=VECTOR('',#562,119.09391276041663);
#564=LINE('',#561,#563);
#565=EDGE_CURVE('',#321,#531,#564,.T.);
#566=ORIENTED_EDGE('',*,*,#565,.T.);
#567=ORIENTED_EDGE('',*,*,#536,.T.);
#568=EDGE_LOOP('',(#559,#560,#566,#567));
#569=FACE_OUTER_BOUND('',#568,.T.);
#570=ADVANCED_FACE('',(#569),#553,.T.);
#571=CARTESIAN_POINT('',(68.539082541754226,9.499999999999996,45.808923099358566));
#572=DIRECTION('',(0.0,-1.0,0.0));
#573=DIRECTION('',(0.0,0.0,-1.0));
#574=AXIS2_PLACEMENT_3D('',#571,#572,#573);
#575=PLANE('',#574);
#576=ORIENTED_EDGE('',*,*,#267,.F.);
#577=ORIENTED_EDGE('',*,*,#250,.F.);
#578=ORIENTED_EDGE('',*,*,#408,.F.);
#579=ORIENTED_EDGE('',*,*,#340,.F.);
#580=ORIENTED_EDGE('',*,*,#558,.F.);
#581=ORIENTED_EDGE('',*,*,#528,.F.);
#582=ORIENTED_EDGE('',*,*,#496,.F.);
#583=ORIENTED_EDGE('',*,*,#464,.F.);
#584=ORIENTED_EDGE('',*,*,#432,.F.);
#585=EDGE_LOOP('',(#576,#577,#578,#579,#580,#581,#582,#583,#584));
#586=FACE_OUTER_BOUND('',#585,.T.);
#587=ADVANCED_FACE('',(#586),#575,.F.);
#588=CARTESIAN_POINT('',(68.539082541754226,-9.500000000000004,45.808923099358566));
#589=DIRECTION('',(0.0,-1.0,0.0));
#590=DIRECTION('',(0.0,0.0,-1.0));
#591=AXIS2_PLACEMENT_3D('',#588,#589,#590);
#592=PLANE('',#591);
#593=ORIENTED_EDGE('',*,*,#446,.F.);
#594=ORIENTED_EDGE('',*,*,#479,.F.);
#595=ORIENTED_EDGE('',*,*,#510,.F.);
#596=ORIENTED_EDGE('',*,*,#543,.F.);
#597=ORIENTED_EDGE('',*,*,#565,.F.);
#598=ORIENTED_EDGE('',*,*,#326,.F.);
#599=ORIENTED_EDGE('',*,*,#415,.F.);
#600=ORIENTED_EDGE('',*,*,#235,.F.);
#601=ORIENTED_EDGE('',*,*,#282,.F.);
#602=EDGE_LOOP('',(#593,#594,#595,#596,#597,#598,#599,#600,#601));
#603=FACE_OUTER_BOUND('',#602,.T.);
#604=ADVANCED_FACE('',(#603),#592,.T.);
#605=CLOSED_SHELL('',(#254,#286,#344,#395,#420,#451,#484,#515,#548,#570,#587,#604));
#606=MANIFOLD_SOLID_BREP('418A',#605);
#607=ADVANCED_BREP_SHAPE_REPRESENTATION('ABSR1',(#212,#606),#28);
#608=SHAPE_REPRESENTATION_RELATIONSHIP('SRRPL1','',#607,#122);
ENDSEC;
END-ISO-10303-21;
