ISO-10303-21;
HEADER;
/****************************************************************
 * Generated by software with PDElib inside                    *
 * PDElib Version v51a, created Fri 09/10/2010                  *
 * ITI Transcendata (http://www.transcendata.com/)              *
 ****************************************************************/
FILE_DESCRIPTION((''),'2;1');
FILE_NAME('3d_GEX62NC.stp','2014-06-05T08:31:45',(''),(''),'Mechanical Desktop 2011','Mechanical Desktop 2011',', , ');
FILE_SCHEMA(('CONFIG_CONTROL_DESIGN'));
ENDSEC;
DATA;
#10=(NAMED_UNIT(*)PLANE_ANGLE_UNIT()SI_UNIT($,.RADIAN.));
#11=DIMENSIONAL_EXPONENTS(0.0,0.0,0.0,0.0,0.0,0.0,0.0);
#12=PLANE_ANGLE_MEASURE_WITH_UNIT(PLANE_ANGLE_MEASURE(0.0174532925),#10);
#16=(CONVERSION_BASED_UNIT('DEGREE',#12)NAMED_UNIT(#11)PLANE_ANGLE_UNIT());
#20=(NAMED_UNIT(*)SI_UNIT($,.STERADIAN.)SOLID_ANGLE_UNIT());
#24=(LENGTH_UNIT()NAMED_UNIT(*)SI_UNIT(.MILLI.,.METRE.));
#26=UNCERTAINTY_MEASURE_WITH_UNIT(LENGTH_MEASURE(0.000001),#24,'DISTANCE_ACCURACY_VALUE','');
#28=(GEOMETRIC_REPRESENTATION_CONTEXT(3)GLOBAL_UNCERTAINTY_ASSIGNED_CONTEXT((#26))GLOBAL_UNIT_ASSIGNED_CONTEXT((#16,#20,#24))REPRESENTATION_CONTEXT('','3D'));
#29=APPLICATION_CONTEXT('CONFIGURATION CONTROLLED 3D DESIGNS OF MECHANICAL PARTS AND ASSEMBLIES');
#30=APPLICATION_PROTOCOL_DEFINITION('INTERNATIONAL STANDARD','config_control_design',1995,#29);
#31=MECHANICAL_CONTEXT('3D Mechanical Parts',#29,'mechanical');
#32=PRODUCT('Product','Product',' ',(#31));
#33=PRODUCT_RELATED_PRODUCT_CATEGORY('detail',$,(#32));
#34=PRODUCT_CATEGORY('part',$);
#35=PRODUCT_CATEGORY_RELATIONSHIP('None','None',#34,#33);
#36=PERSON('1','Design','Joe',$,$,$);
#37=ORGANIZATION($,'None','None');
#38=PERSON_AND_ORGANIZATION(#36,#37);
#39=PERSON_AND_ORGANIZATION_ROLE('design_owner');
#40=CC_DESIGN_PERSON_AND_ORGANIZATION_ASSIGNMENT(#38,#39,(#32));
#41=PRODUCT_DEFINITION_FORMATION_WITH_SPECIFIED_SOURCE('None','None',#32,.BOUGHT.);
#42=PERSON('2','Creator','Joe',$,$,$);
#43=ORGANIZATION($,'None','None');
#44=PERSON_AND_ORGANIZATION(#42,#43);
#45=PERSON_AND_ORGANIZATION_ROLE('creator');
#46=CC_DESIGN_PERSON_AND_ORGANIZATION_ASSIGNMENT(#44,#45,(#41));
#47=PERSON('3','Supplier','Joe',$,$,$);
#48=ORGANIZATION($,'None','None');
#49=PERSON_AND_ORGANIZATION(#47,#48);
#50=PERSON_AND_ORGANIZATION_ROLE('design_supplier');
#51=CC_DESIGN_PERSON_AND_ORGANIZATION_ASSIGNMENT(#49,#50,(#41));
#52=APPROVAL_STATUS('approved');
#53=APPROVAL(#52,'None');
#54=PERSON('4','Approver','Joe',$,$,$);
#55=ORGANIZATION($,'None','None');
#56=PERSON_AND_ORGANIZATION(#54,#55);
#57=APPROVAL_ROLE('approver');
#58=APPROVAL_PERSON_ORGANIZATION(#56,#53,#57);
#59=COORDINATED_UNIVERSAL_TIME_OFFSET(8,$,.EXACT.);
#60=CALENDAR_DATE(1996,29,5);
#61=LOCAL_TIME(12,0,0.0,#59);
#62=DATE_AND_TIME(#60,#61);
#63=APPROVAL_DATE_TIME(#62,#53);
#64=CC_DESIGN_APPROVAL(#53,(#41));
#65=SECURITY_CLASSIFICATION_LEVEL('unclassified');
#66=SECURITY_CLASSIFICATION('security','None',#65);
#67=CC_DESIGN_SECURITY_CLASSIFICATION(#66,(#41));
#68=APPROVAL_STATUS('approved');
#69=APPROVAL(#68,'None');
#70=PERSON('5','Approver','Joe',$,$,$);
#71=ORGANIZATION($,'None','None');
#72=PERSON_AND_ORGANIZATION(#70,#71);
#73=APPROVAL_ROLE('approver');
#74=APPROVAL_PERSON_ORGANIZATION(#72,#69,#73);
#75=COORDINATED_UNIVERSAL_TIME_OFFSET(8,$,.EXACT.);
#76=CALENDAR_DATE(1996,29,5);
#77=LOCAL_TIME(12,0,0.0,#75);
#78=DATE_AND_TIME(#76,#77);
#79=APPROVAL_DATE_TIME(#78,#69);
#80=CC_DESIGN_APPROVAL(#69,(#66));
#81=PERSON('6','Classifier','Joe',$,$,$);
#82=ORGANIZATION($,'None','None');
#83=PERSON_AND_ORGANIZATION(#81,#82);
#84=PERSON_AND_ORGANIZATION_ROLE('classification_officer');
#85=CC_DESIGN_PERSON_AND_ORGANIZATION_ASSIGNMENT(#83,#84,(#66));
#86=COORDINATED_UNIVERSAL_TIME_OFFSET(8,$,.EXACT.);
#87=CALENDAR_DATE(1996,29,5);
#88=LOCAL_TIME(12,0,0.0,#86);
#89=DATE_AND_TIME(#87,#88);
#90=DATE_TIME_ROLE('classification_date');
#91=CC_DESIGN_DATE_AND_TIME_ASSIGNMENT(#89,#90,(#66));
#92=DESIGN_CONTEXT('Design Context',#29,'design');
#93=PRODUCT_DEFINITION('None','None',#41,#92);
#94=PERSON('7','Creator','Joe',$,$,$);
#95=ORGANIZATION($,'None','None');
#96=PERSON_AND_ORGANIZATION(#94,#95);
#97=PERSON_AND_ORGANIZATION_ROLE('creator');
#98=CC_DESIGN_PERSON_AND_ORGANIZATION_ASSIGNMENT(#96,#97,(#93));
#99=COORDINATED_UNIVERSAL_TIME_OFFSET(8,$,.EXACT.);
#100=CALENDAR_DATE(1996,29,5);
#101=LOCAL_TIME(12,0,0.0,#99);
#102=DATE_AND_TIME(#100,#101);
#103=DATE_TIME_ROLE('creation_date');
#104=CC_DESIGN_DATE_AND_TIME_ASSIGNMENT(#102,#103,(#93));
#105=APPROVAL_STATUS('approved');
#106=APPROVAL(#105,'None');
#107=PERSON('8','Approver','Joe',$,$,$);
#108=ORGANIZATION($,'None','None');
#109=PERSON_AND_ORGANIZATION(#107,#108);
#110=APPROVAL_ROLE('approver');
#111=APPROVAL_PERSON_ORGANIZATION(#109,#106,#110);
#112=COORDINATED_UNIVERSAL_TIME_OFFSET(8,$,.EXACT.);
#113=CALENDAR_DATE(1996,29,5);
#114=LOCAL_TIME(12,0,0.0,#112);
#115=DATE_AND_TIME(#113,#114);
#116=APPROVAL_DATE_TIME(#115,#106);
#117=CC_DESIGN_APPROVAL(#106,(#93));
#118=CARTESIAN_POINT('NONE',(0.0,0.0,0.0));
#119=DIRECTION('NONE',(0.0,0.0,1.0));
#120=DIRECTION('NONE',(1.0,0.0,0.0));
#121=AXIS2_PLACEMENT_3D('NONE',#118,#119,#120);
#122=SHAPE_REPRESENTATION('SR1',(#121),#28);
#123=PRODUCT_DEFINITION_SHAPE('PDS1','Test Part',#93);
#124=SHAPE_DEFINITION_REPRESENTATION(#123,#122);
#125=CARTESIAN_POINT('',(0.0,0.0,6.69999999999999));
#126=DIRECTION('',(0.0,0.0,1.0));
#127=DIRECTION('',(1.0,0.0,0.0));
#128=AXIS2_PLACEMENT_3D('',#125,#126,#127);
#129=CYLINDRICAL_SURFACE('',#128,29.000124782986148);
#130=CARTESIAN_POINT('',(29.000124782986148,0.0,13.399999999999981));
#131=VERTEX_POINT('',#130);
#132=CARTESIAN_POINT('',(29.000124782986148,0.0,0.0));
#133=VERTEX_POINT('',#132);
#134=CARTESIAN_POINT('',(29.000124782986148,0.0,13.399999999999981));
#135=DIRECTION('',(0.0,0.0,-1.0));
#136=VECTOR('',#135,13.399999999999981);
#137=LINE('',#134,#136);
#138=EDGE_CURVE('',#131,#133,#137,.T.);
#139=ORIENTED_EDGE('',*,*,#138,.F.);
#140=CARTESIAN_POINT('',(-29.000124782986148,-3.551374E-015,13.399999999999981));
#141=VERTEX_POINT('',#140);
#142=CARTESIAN_POINT('',(0.0,0.0,13.399999999999981));
#143=DIRECTION('',(0.0,0.0,1.0));
#144=DIRECTION('',(1.0,0.0,0.0));
#145=AXIS2_PLACEMENT_3D('',#142,#143,#144);
#146=CIRCLE('',#145,29.000124782986148);
#147=EDGE_CURVE('',#141,#131,#146,.T.);
#148=ORIENTED_EDGE('',*,*,#147,.F.);
#149=CARTESIAN_POINT('',(-29.000124782986148,-3.551374E-015,0.0));
#150=VERTEX_POINT('',#149);
#151=CARTESIAN_POINT('',(-29.000124782986148,-3.551374E-015,13.399999999999981));
#152=DIRECTION('',(0.0,0.0,-1.0));
#153=VECTOR('',#152,13.399999999999981);
#154=LINE('',#151,#153);
#155=EDGE_CURVE('',#141,#150,#154,.T.);
#156=ORIENTED_EDGE('',*,*,#155,.T.);
#157=CARTESIAN_POINT('',(0.0,0.0,0.0));
#158=DIRECTION('',(0.0,0.0,-1.0));
#159=DIRECTION('',(1.0,0.0,0.0));
#160=AXIS2_PLACEMENT_3D('',#157,#158,#159);
#161=CIRCLE('',#160,29.000124782986148);
#162=EDGE_CURVE('',#133,#150,#161,.T.);
#163=ORIENTED_EDGE('',*,*,#162,.F.);
#164=EDGE_LOOP('',(#139,#148,#156,#163));
#165=FACE_OUTER_BOUND('',#164,.T.);
#166=ADVANCED_FACE('',(#165),#129,.T.);
#167=CARTESIAN_POINT('',(0.0,0.0,6.69999999999999));
#168=DIRECTION('',(0.0,0.0,1.0));
#169=DIRECTION('',(1.0,0.0,0.0));
#170=AXIS2_PLACEMENT_3D('',#167,#168,#169);
#171=CYLINDRICAL_SURFACE('',#170,29.000124782986148);
#172=ORIENTED_EDGE('',*,*,#138,.T.);
#173=CARTESIAN_POINT('',(0.0,0.0,0.0));
#174=DIRECTION('',(0.0,0.0,-1.0));
#175=DIRECTION('',(1.0,0.0,0.0));
#176=AXIS2_PLACEMENT_3D('',#173,#174,#175);
#177=CIRCLE('',#176,29.000124782986148);
#178=EDGE_CURVE('',#150,#133,#177,.T.);
#179=ORIENTED_EDGE('',*,*,#178,.F.);
#180=ORIENTED_EDGE('',*,*,#155,.F.);
#181=CARTESIAN_POINT('',(0.0,0.0,13.399999999999981));
#182=DIRECTION('',(0.0,0.0,1.0));
#183=DIRECTION('',(1.0,0.0,0.0));
#184=AXIS2_PLACEMENT_3D('',#181,#182,#183);
#185=CIRCLE('',#184,29.000124782986148);
#186=EDGE_CURVE('',#131,#141,#185,.T.);
#187=ORIENTED_EDGE('',*,*,#186,.F.);
#188=EDGE_LOOP('',(#172,#179,#180,#187));
#189=FACE_OUTER_BOUND('',#188,.T.);
#190=ADVANCED_FACE('',(#189),#171,.T.);
#191=CARTESIAN_POINT('',(0.0,0.0,0.0));
#192=DIRECTION('',(0.0,0.0,-1.0));
#193=DIRECTION('',(-1.0,0.0,0.0));
#194=AXIS2_PLACEMENT_3D('',#191,#192,#193);
#195=PLANE('',#194);
#196=ORIENTED_EDGE('',*,*,#162,.T.);
#197=ORIENTED_EDGE('',*,*,#178,.T.);
#198=EDGE_LOOP('',(#196,#197));
#199=FACE_OUTER_BOUND('',#198,.T.);
#200=ADVANCED_FACE('',(#199),#195,.T.);
#201=CARTESIAN_POINT('',(0.0,0.0,13.399999999999981));
#202=DIRECTION('',(0.0,0.0,1.0));
#203=DIRECTION('',(1.0,0.0,0.0));
#204=AXIS2_PLACEMENT_3D('',#201,#202,#203);
#205=PLANE('',#204);
#206=ORIENTED_EDGE('',*,*,#186,.T.);
#207=ORIENTED_EDGE('',*,*,#147,.T.);
#208=EDGE_LOOP('',(#206,#207));
#209=FACE_OUTER_BOUND('',#208,.T.);
#210=ADVANCED_FACE('',(#209),#205,.T.);
#211=CLOSED_SHELL('',(#166,#190,#200,#210));
#212=MANIFOLD_SOLID_BREP('426C',#211);
#213=CARTESIAN_POINT('',(-29.000124782986145,-9.5,13.399999999999981));
#214=DIRECTION('',(0.0,0.0,-1.0));
#215=DIRECTION('',(0.0,1.0,0.0));
#216=AXIS2_PLACEMENT_3D('',#213,#214,#215);
#217=PLANE('',#216);
#218=CARTESIAN_POINT('',(19.500124782986148,-9.5,13.400000000000016));
#219=VERTEX_POINT('',#218);
#220=CARTESIAN_POINT('',(19.500124782986148,9.5,13.400000000000016));
#221=VERTEX_POINT('',#220);
#222=CARTESIAN_POINT('',(19.500124782986148,-5.535154E-015,13.399999999999986));
#223=DIRECTION('',(0.0,0.0,1.0));
#224=DIRECTION('',(0.707106781186547,0.707106781186548,0.0));
#225=AXIS2_PLACEMENT_3D('',#222,#223,#224);
#226=CIRCLE('',#225,9.499999999999998);
#227=EDGE_CURVE('',#219,#221,#226,.T.);
#228=ORIENTED_EDGE('',*,*,#227,.F.);
#229=CARTESIAN_POINT('',(-19.420625474369228,-9.5,13.399999999999988));
#230=VERTEX_POINT('',#229);
#231=CARTESIAN_POINT('',(19.500124782986148,-9.5,13.400000000000016));
#232=DIRECTION('',(-1.0,0.0,0.0));
#233=VECTOR('',#232,38.92075025735538);
#234=LINE('',#231,#233);
#235=EDGE_CURVE('',#219,#230,#234,.T.);
#236=ORIENTED_EDGE('',*,*,#235,.T.);
#237=CARTESIAN_POINT('',(-19.420625474369228,9.5,13.399999999999988));
#238=VERTEX_POINT('',#237);
#239=CARTESIAN_POINT('',(-19.420625474369231,-7.032109E-015,13.399999999999984));
#240=DIRECTION('',(0.0,0.0,1.0));
#241=DIRECTION('',(-1.0,0.0,0.0));
#242=AXIS2_PLACEMENT_3D('',#239,#240,#241);
#243=ELLIPSE('',#242,9.579499308616917,9.5);
#244=EDGE_CURVE('',#238,#230,#243,.T.);
#245=ORIENTED_EDGE('',*,*,#244,.F.);
#246=CARTESIAN_POINT('',(-19.420625474369228,9.5,13.399999999999988));
#247=DIRECTION('',(1.0,0.0,0.0));
#248=VECTOR('',#247,38.92075025735538);
#249=LINE('',#246,#248);
#250=EDGE_CURVE('',#238,#221,#249,.T.);
#251=ORIENTED_EDGE('',*,*,#250,.T.);
#252=EDGE_LOOP('',(#228,#236,#245,#251));
#253=FACE_OUTER_BOUND('',#252,.T.);
#254=ADVANCED_FACE('',(#253),#217,.T.);
#255=CARTESIAN_POINT('',(19.500124782986145,-2.664535E-015,29.027437894894828));
#256=DIRECTION('',(-1.491522E-016,1.836910E-016,1.0));
#257=DIRECTION('',(0.707106781186547,0.707106781186548,0.0));
#258=AXIS2_PLACEMENT_3D('',#255,#256,#257);
#259=CYLINDRICAL_SURFACE('',#258,9.499999999999998);
#260=ORIENTED_EDGE('',*,*,#227,.T.);
#261=CARTESIAN_POINT('',(19.500124782986145,9.499999999999998,36.667840679150409));
#262=VERTEX_POINT('',#261);
#263=CARTESIAN_POINT('',(19.500124782986148,9.499999999999993,13.400000000000016));
#264=DIRECTION('',(0.0,0.0,1.0));
#265=VECTOR('',#264,23.267840679150392);
#266=LINE('',#263,#265);
#267=EDGE_CURVE('',#221,#262,#266,.T.);
#268=ORIENTED_EDGE('',*,*,#267,.T.);
#269=CARTESIAN_POINT('',(19.500124782986145,-9.500000000000002,36.667840679150409));
#270=VERTEX_POINT('',#269);
#271=CARTESIAN_POINT('',(19.500124782986145,-1.261062E-015,36.667840679150409));
#272=DIRECTION('',(-0.057960241851732,1.833821E-016,0.998318892120393));
#273=DIRECTION('',(0.998318892120393,4.666765E-016,0.057960241851732));
#274=AXIS2_PLACEMENT_3D('',#271,#272,#273);
#275=ELLIPSE('',#274,9.515997418242126,9.5);
#276=EDGE_CURVE('',#262,#270,#275,.F.);
#277=ORIENTED_EDGE('',*,*,#276,.T.);
#278=CARTESIAN_POINT('',(19.500124782986145,-9.500000000000002,36.667840679150409));
#279=DIRECTION('',(0.0,0.0,-1.0));
#280=VECTOR('',#279,23.267840679150392);
#281=LINE('',#278,#280);
#282=EDGE_CURVE('',#270,#219,#281,.T.);
#283=ORIENTED_EDGE('',*,*,#282,.T.);
#284=EDGE_LOOP('',(#260,#268,#277,#283));
#285=FACE_OUTER_BOUND('',#284,.T.);
#286=ADVANCED_FACE('',(#285),#259,.T.);
#287=CARTESIAN_POINT('',(54.999571397569241,-9.5,65.899810112847149));
#288=DIRECTION('',(-0.173651316588142,1.809002E-016,0.98480719953055));
#289=DIRECTION('',(0.0,-1.0,0.0));
#290=AXIS2_PLACEMENT_3D('',#287,#288,#289);
#291=PLANE('',#290);
#292=CARTESIAN_POINT('',(-23.282993324296061,3.566071910397584,52.096224561961208));
#293=VERTEX_POINT('',#292);
#294=CARTESIAN_POINT('',(-14.196299552401154,9.5,53.698483702303605));
#295=VERTEX_POINT('',#294);
#296=CARTESIAN_POINT('',(-14.196299552401154,3.703581E-016,53.698483702303605));
#297=DIRECTION('',(0.173651316588142,-1.809002E-016,-0.98480719953055));
#298=DIRECTION('',(-0.98480719953055,1.249090E-015,-0.173651316588142));
#299=AXIS2_PLACEMENT_3D('',#296,#297,#298);
#300=ELLIPSE('',#299,9.954847723616622,9.5);
#301=EDGE_CURVE('',#293,#295,#300,.T.);
#302=ORIENTED_EDGE('',*,*,#301,.F.);
#303=CARTESIAN_POINT('',(-23.282993324296061,-3.56607191039758,52.096224561961208));
#304=VERTEX_POINT('',#303);
#305=CARTESIAN_POINT('',(-23.282993324296061,-3.56607191039758,52.096224561961208));
#306=DIRECTION('',(0.0,1.0,0.0));
#307=VECTOR('',#306,7.132143820795164);
#308=LINE('',#305,#307);
#309=EDGE_CURVE('',#304,#293,#308,.T.);
#310=ORIENTED_EDGE('',*,*,#309,.F.);
#311=CARTESIAN_POINT('',(-14.196299552401154,-9.5,53.698483702303605));
#312=VERTEX_POINT('',#311);
#313=CARTESIAN_POINT('',(-14.196299552401154,3.703581E-016,53.698483702303605));
#314=DIRECTION('',(0.173651316588142,-1.809002E-016,-0.98480719953055));
#315=DIRECTION('',(-0.98480719953055,6.245449E-016,-0.173651316588142));
#316=AXIS2_PLACEMENT_3D('',#313,#314,#315);
#317=ELLIPSE('',#316,9.95484772361662,9.499999999999998);
#318=EDGE_CURVE('',#312,#304,#317,.T.);
#319=ORIENTED_EDGE('',*,*,#318,.F.);
#320=CARTESIAN_POINT('',(54.999571397569241,-9.5,65.899810112847149));
#321=VERTEX_POINT('',#320);
#322=CARTESIAN_POINT('',(-14.196299552401154,-9.5,53.698483702303605));
#323=DIRECTION('',(0.98480719953055,2.528141E-017,0.173651316588142));
#324=VECTOR('',#323,70.263368284630246);
#325=LINE('',#322,#324);
#326=EDGE_CURVE('',#312,#321,#325,.T.);
#327=ORIENTED_EDGE('',*,*,#326,.T.);
#328=CARTESIAN_POINT('',(54.999571397569241,9.500000000000007,65.899810112847149));
#329=VERTEX_POINT('',#328);
#330=CARTESIAN_POINT('',(54.999571397569241,-9.5,65.899810112847149));
#331=DIRECTION('',(0.0,1.0,0.0));
#332=VECTOR('',#331,19.000000000000007);
#333=LINE('',#330,#332);
#334=EDGE_CURVE('',#321,#329,#333,.T.);
#335=ORIENTED_EDGE('',*,*,#334,.T.);
#336=CARTESIAN_POINT('',(54.999571397569241,9.500000000000002,65.899810112847149));
#337=DIRECTION('',(-0.98480719953055,-2.528141E-017,-0.173651316588142));
#338=VECTOR('',#337,70.263368284630246);
#339=LINE('',#336,#338);
#340=EDGE_CURVE('',#329,#295,#339,.T.);
#341=ORIENTED_EDGE('',*,*,#340,.T.);
#342=EDGE_LOOP('',(#302,#310,#319,#327,#335,#341));
#343=FACE_OUTER_BOUND('',#342,.T.);
#344=ADVANCED_FACE('',(#343),#291,.T.);
#345=CARTESIAN_POINT('',(-22.918016366896456,-9.5,50.93732402239209));
#346=DIRECTION('',(0.0,1.0,-1.836910E-016));
#347=DIRECTION('',(-0.725237073728512,1.264711E-016,0.688499227951422));
#348=AXIS2_PLACEMENT_3D('',#345,#346,#347);
#349=CYLINDRICAL_SURFACE('',#348,1.215013843561572);
#350=CARTESIAN_POINT('',(-24.09430881076381,0.0,51.2416178385416));
#351=VERTEX_POINT('',#350);
#352=CARTESIAN_POINT('',(-24.094308810763806,2.081668E-017,51.241617838541615));
#353=CARTESIAN_POINT('',(-24.094308810763806,0.097478339421868,51.241617838541615));
#354=CARTESIAN_POINT('',(-24.091230777607894,0.192082471297495,51.253836744812041));
#355=CARTESIAN_POINT('',(-24.080873017398762,0.379061023209832,51.289994800329431));
#356=CARTESIAN_POINT('',(-24.073641608490629,0.471523151833774,51.313492822091334));
#357=CARTESIAN_POINT('',(-24.047158900733194,0.749467934945196,51.389155700471427));
#358=CARTESIAN_POINT('',(-24.023143216102568,0.935282223159185,51.446331838197779));
#359=CARTESIAN_POINT('',(-23.933287356678587,1.499307759271602,51.617047548110072));
#360=CARTESIAN_POINT('',(-23.849231143791968,1.88226345797192,51.731219495686453));
#361=CARTESIAN_POINT('',(-23.635444983329634,2.64326069437666,51.928648289620462));
#362=CARTESIAN_POINT('',(-23.505268401197387,3.022569376383556,52.013082504038039));
#363=CARTESIAN_POINT('',(-23.331624829824094,3.450494291903997,52.080051608841487));
#364=CARTESIAN_POINT('',(-23.307541873803544,3.508414308904265,52.088493393839443));
#365=CARTESIAN_POINT('',(-23.282993324296061,3.566071910397584,52.096224561961208));
#366=B_SPLINE_CURVE_WITH_KNOTS('',3,(#352,#353,#354,#355,#356,#357,#358,#359,#360,#361,#362,#363,#364,#365),.UNSPECIFIED.,.F.,.U.,(4,2,2,2,2,2,4),(8.415701069918431,8.708136088184034,9.000571106449639,9.585441142980848,10.755181216043264,11.924921289105679,12.108884233572041),.UNSPECIFIED.);
#367=EDGE_CURVE('',#351,#293,#366,.T.);
#368=ORIENTED_EDGE('',*,*,#367,.F.);
#369=CARTESIAN_POINT('',(-23.282993324296061,-3.56607191039758,52.096224561961208));
#370=CARTESIAN_POINT('',(-23.30754187380354,-3.508414308904261,52.088493393839443));
#371=CARTESIAN_POINT('',(-23.331624829824094,-3.450494291903995,52.080051608841487));
#372=CARTESIAN_POINT('',(-23.505268401197384,-3.022569376383554,52.013082504038039));
#373=CARTESIAN_POINT('',(-23.635444983329634,-2.643260694376659,51.928648289620469));
#374=CARTESIAN_POINT('',(-23.849231143791968,-1.882263457971919,51.731219495686453));
#375=CARTESIAN_POINT('',(-23.933287356678584,-1.499307759271598,51.617047548110072));
#376=CARTESIAN_POINT('',(-24.023143216102561,-0.93528222315918,51.446331838197793));
#377=CARTESIAN_POINT('',(-24.047158900733194,-0.749467934945196,51.389155700471441));
#378=CARTESIAN_POINT('',(-24.073641608490625,-0.471523151833772,51.313492822091348));
#379=CARTESIAN_POINT('',(-24.080873017398755,-0.37906102320983,51.289994800329445));
#380=CARTESIAN_POINT('',(-24.091230777607887,-0.192082471297492,51.253836744812055));
#381=CARTESIAN_POINT('',(-24.094308810763806,-0.097478339421868,51.241617838541615));
#382=CARTESIAN_POINT('',(-24.094308810763806,0.0,51.241617838541615));
#383=B_SPLINE_CURVE_WITH_KNOTS('',3,(#369,#370,#371,#372,#373,#374,#375,#376,#377,#378,#379,#380,#381,#382),.UNSPECIFIED.,.F.,.U.,(4,2,2,2,2,2,4),(4.721942382741867,4.905905327208229,6.075645400270646,7.245385473333062,7.83025550986427,8.122690528129875,8.415125546395478),.UNSPECIFIED.);
#384=EDGE_CURVE('',#304,#351,#383,.T.);
#385=ORIENTED_EDGE('',*,*,#384,.F.);
#386=ORIENTED_EDGE('',*,*,#309,.T.);
#387=EDGE_LOOP('',(#368,#385,#386));
#388=FACE_OUTER_BOUND('',#387,.T.);
#389=ADVANCED_FACE('',(#388),#349,.T.);
#390=CARTESIAN_POINT('',(-14.457681517079411,0.0,51.682281612121834));
#391=DIRECTION('',(0.128564881022903,1.821665E-016,0.991701099811615));
#392=DIRECTION('',(-0.70123857258695,-0.707106781186548,0.090909099193737));
#393=AXIS2_PLACEMENT_3D('',#390,#391,#392);
#394=CYLINDRICAL_SURFACE('',#393,9.499999999999998);
#395=ORIENTED_EDGE('',*,*,#384,.T.);
#396=ORIENTED_EDGE('',*,*,#367,.T.);
#397=ORIENTED_EDGE('',*,*,#301,.T.);
#398=CARTESIAN_POINT('',(-14.196299552401154,9.500000000000002,53.698483702303605));
#399=DIRECTION('',(-0.128564881022903,-1.748567E-016,-0.991701099811615));
#400=VECTOR('',#399,40.635715448897642);
#401=LINE('',#398,#400);
#402=EDGE_CURVE('',#295,#238,#401,.T.);
#403=ORIENTED_EDGE('',*,*,#402,.T.);
#404=ORIENTED_EDGE('',*,*,#244,.T.);
#405=CARTESIAN_POINT('',(-19.420625474369231,-9.500000000000005,13.399999999999984));
#406=DIRECTION('',(0.128564881022903,1.748567E-016,0.991701099811615));
#407=VECTOR('',#406,40.635715448897642);
#408=LINE('',#405,#407);
#409=EDGE_CURVE('',#230,#312,#408,.T.);
#410=ORIENTED_EDGE('',*,*,#409,.T.);
#411=ORIENTED_EDGE('',*,*,#318,.T.);
#412=EDGE_LOOP('',(#395,#396,#397,#403,#404,#410,#411));
#413=FACE_OUTER_BOUND('',#412,.T.);
#414=ADVANCED_FACE('',(#413),#394,.T.);
#415=CARTESIAN_POINT('',(29.000124782986141,-9.5,37.219390190972177));
#416=DIRECTION('',(0.057960241851732,-1.833821E-016,-0.998318892120393));
#417=DIRECTION('',(0.0,1.0,0.0));
#418=AXIS2_PLACEMENT_3D('',#415,#416,#417);
#419=PLANE('',#418);
#420=CARTESIAN_POINT('',(141.92594560169923,9.5,43.775619806196758));
#421=VERTEX_POINT('',#420);
#422=CARTESIAN_POINT('',(19.50012478298612,9.499999999999998,36.667840679150409));
#423=DIRECTION('',(0.998318892120393,1.448527E-017,0.057960241851732));
#424=VECTOR('',#423,122.63197840389971);
#425=LINE('',#422,#424);
#426=EDGE_CURVE('',#262,#421,#425,.T.);
#427=ORIENTED_EDGE('',*,*,#426,.T.);
#428=CARTESIAN_POINT('',(141.92594560169923,-9.5,43.775619806196758));
#429=VERTEX_POINT('',#428);
#430=CARTESIAN_POINT('',(141.92594560169923,-9.5,43.775619806196758));
#431=DIRECTION('',(0.0,1.0,0.0));
#432=VECTOR('',#431,19.0);
#433=LINE('',#430,#432);
#434=EDGE_CURVE('',#429,#421,#433,.T.);
#435=ORIENTED_EDGE('',*,*,#434,.F.);
#436=CARTESIAN_POINT('',(141.92594560169923,-9.5,43.775619806196758));
#437=DIRECTION('',(-0.998318892120393,-1.448527E-017,-0.057960241851732));
#438=VECTOR('',#437,122.63197840389971);
#439=LINE('',#436,#438);
#440=EDGE_CURVE('',#429,#270,#439,.T.);
#441=ORIENTED_EDGE('',*,*,#440,.T.);
#442=ORIENTED_EDGE('',*,*,#276,.F.);
#443=EDGE_LOOP('',(#427,#435,#441,#442));
#444=FACE_OUTER_BOUND('',#443,.T.);
#445=ADVANCED_FACE('',(#444),#419,.T.);
#446=CARTESIAN_POINT('',(141.94629588711373,-9.5,44.829131575267184));
#447=DIRECTION('',(0.0,1.0,-1.836910E-016));
#448=DIRECTION('',(0.699238316545832,-1.313186E-016,-0.714888646345814));
#449=AXIS2_PLACEMENT_3D('',#446,#447,#448);
#450=CYLINDRICAL_SURFACE('',#449,1.053708300093691);
#451=CARTESIAN_POINT('',(142.99999999999994,9.5,44.826161024308576));
#452=VERTEX_POINT('',#451);
#453=CARTESIAN_POINT('',(141.94629588711373,9.5,44.829131575267184));
#454=DIRECTION('',(-9.182298E-017,-1.0,9.387816E-017));
#455=DIRECTION('',(0.699238316545832,-1.313186E-016,-0.714888646345814));
#456=AXIS2_PLACEMENT_3D('',#453,#454,#455);
#457=CIRCLE('',#456,1.053708300093691);
#458=EDGE_CURVE('',#421,#452,#457,.T.);
#459=ORIENTED_EDGE('',*,*,#458,.T.);
#460=CARTESIAN_POINT('',(142.99999999999994,-9.5,44.826161024308576));
#461=VERTEX_POINT('',#460);
#462=CARTESIAN_POINT('',(142.99999999999994,-9.5,44.826161024308576));
#463=DIRECTION('',(0.0,1.0,0.0));
#464=VECTOR('',#463,19.0);
#465=LINE('',#462,#464);
#466=EDGE_CURVE('',#461,#452,#465,.T.);
#467=ORIENTED_EDGE('',*,*,#466,.F.);
#468=CARTESIAN_POINT('',(141.94629588711373,-9.5,44.829131575267184));
#469=DIRECTION('',(9.182298E-017,1.0,-9.387816E-017));
#470=DIRECTION('',(0.699238316545832,-1.313186E-016,-0.714888646345814));
#471=AXIS2_PLACEMENT_3D('',#468,#469,#470);
#472=CIRCLE('',#471,1.053708300093691);
#473=EDGE_CURVE('',#461,#429,#472,.T.);
#474=ORIENTED_EDGE('',*,*,#473,.T.);
#475=ORIENTED_EDGE('',*,*,#434,.T.);
#476=EDGE_LOOP('',(#459,#467,#474,#475));
#477=FACE_OUTER_BOUND('',#476,.T.);
#478=ADVANCED_FACE('',(#477),#450,.T.);
#479=CARTESIAN_POINT('',(142.99999999999994,-9.5,44.826161024308576));
#480=DIRECTION('',(0.998983158321119,8.281691E-018,0.045084913116945));
#481=DIRECTION('',(0.0,-1.0,0.0));
#482=AXIS2_PLACEMENT_3D('',#479,#480,#481);
#483=PLANE('',#482);
#484=CARTESIAN_POINT('',(142.09793079219878,9.500000000000007,64.814043531610935));
#485=VERTEX_POINT('',#484);
#486=CARTESIAN_POINT('',(142.99999999999994,9.500000000000004,44.826161024308576));
#487=DIRECTION('',(-0.045084913116945,1.775626E-016,0.998983158321119));
#488=VECTOR('',#487,20.008227707155541);
#489=LINE('',#486,#488);
#490=EDGE_CURVE('',#452,#485,#489,.T.);
#491=ORIENTED_EDGE('',*,*,#490,.T.);
#492=CARTESIAN_POINT('',(142.09793079219878,-9.5,64.814043531610935));
#493=VERTEX_POINT('',#492);
#494=CARTESIAN_POINT('',(142.09793079219878,-9.5,64.814043531610935));
#495=DIRECTION('',(0.0,1.0,0.0));
#496=VECTOR('',#495,19.000000000000007);
#497=LINE('',#494,#496);
#498=EDGE_CURVE('',#493,#485,#497,.T.);
#499=ORIENTED_EDGE('',*,*,#498,.F.);
#500=CARTESIAN_POINT('',(142.09793079219878,-9.5,64.814043531610935));
#501=DIRECTION('',(0.045084913116945,-1.775626E-016,-0.998983158321119));
#502=VECTOR('',#501,20.008227707155541);
#503=LINE('',#500,#502);
#504=EDGE_CURVE('',#493,#461,#503,.T.);
#505=ORIENTED_EDGE('',*,*,#504,.T.);
#506=ORIENTED_EDGE('',*,*,#466,.T.);
#507=EDGE_LOOP('',(#491,#499,#505,#506));
#508=FACE_OUTER_BOUND('',#507,.T.);
#509=ADVANCED_FACE('',(#508),#483,.T.);
#510=CARTESIAN_POINT('',(141.02944372383041,-9.5,64.833074155494572));
#511=DIRECTION('',(0.0,1.0,-1.836910E-016));
#512=DIRECTION('',(0.734061508710626,1.247414E-016,0.679082985672207));
#513=AXIS2_PLACEMENT_3D('',#510,#511,#512);
#514=CYLINDRICAL_SURFACE('',#513,1.068656530376266);
#515=CARTESIAN_POINT('',(141.09348415798675,9.500000000000007,65.899810112847149));
#516=VERTEX_POINT('',#515);
#517=CARTESIAN_POINT('',(141.02944372383041,9.500000000000007,64.833074155494572));
#518=DIRECTION('',(9.156786E-017,-1.0,8.470976E-017));
#519=DIRECTION('',(0.734061508710626,1.247414E-016,0.679082985672207));
#520=AXIS2_PLACEMENT_3D('',#517,#518,#519);
#521=CIRCLE('',#520,1.068656530376266);
#522=EDGE_CURVE('',#485,#516,#521,.T.);
#523=ORIENTED_EDGE('',*,*,#522,.T.);
#524=CARTESIAN_POINT('',(141.09348415798675,-9.5,65.899810112847149));
#525=VERTEX_POINT('',#524);
#526=CARTESIAN_POINT('',(141.09348415798675,-9.5,65.899810112847149));
#527=DIRECTION('',(0.0,1.0,0.0));
#528=VECTOR('',#527,19.000000000000007);
#529=LINE('',#526,#528);
#530=EDGE_CURVE('',#525,#516,#529,.T.);
#531=ORIENTED_EDGE('',*,*,#530,.F.);
#532=CARTESIAN_POINT('',(141.02944372383041,-9.5,64.833074155494572));
#533=DIRECTION('',(-9.156786E-017,1.0,-8.470976E-017));
#534=DIRECTION('',(0.734061508710626,1.247414E-016,0.679082985672207));
#535=AXIS2_PLACEMENT_3D('',#532,#533,#534);
#536=CIRCLE('',#535,1.068656530376266);
#537=EDGE_CURVE('',#525,#493,#536,.T.);
#538=ORIENTED_EDGE('',*,*,#537,.T.);
#539=ORIENTED_EDGE('',*,*,#498,.T.);
#540=EDGE_LOOP('',(#523,#531,#538,#539));
#541=FACE_OUTER_BOUND('',#540,.T.);
#542=ADVANCED_FACE('',(#541),#514,.T.);
#543=CARTESIAN_POINT('',(141.09348415798675,-9.5,65.899810112847149));
#544=DIRECTION('',(0.0,0.0,1.0));
#545=DIRECTION('',(0.0,-1.0,0.0));
#546=AXIS2_PLACEMENT_3D('',#543,#544,#545);
#547=PLANE('',#546);
#548=CARTESIAN_POINT('',(141.09348415798675,9.500000000000007,65.899810112847149));
#549=DIRECTION('',(-1.0,0.0,0.0));
#550=VECTOR('',#549,86.09391276041751);
#551=LINE('',#548,#550);
#552=EDGE_CURVE('',#516,#329,#551,.T.);
#553=ORIENTED_EDGE('',*,*,#552,.T.);
#554=ORIENTED_EDGE('',*,*,#334,.F.);
#555=CARTESIAN_POINT('',(54.999571397569241,-9.5,65.899810112847149));
#556=DIRECTION('',(1.0,0.0,0.0));
#557=VECTOR('',#556,86.09391276041751);
#558=LINE('',#555,#557);
#559=EDGE_CURVE('',#321,#525,#558,.T.);
#560=ORIENTED_EDGE('',*,*,#559,.T.);
#561=ORIENTED_EDGE('',*,*,#530,.T.);
#562=EDGE_LOOP('',(#553,#554,#560,#561));
#563=FACE_OUTER_BOUND('',#562,.T.);
#564=ADVANCED_FACE('',(#563),#547,.T.);
#565=CARTESIAN_POINT('',(52.784823624511802,9.5,44.654875789789642));
#566=DIRECTION('',(0.0,1.0,0.0));
#567=DIRECTION('',(1.0,0.0,0.0));
#568=AXIS2_PLACEMENT_3D('',#565,#566,#567);
#569=PLANE('',#568);
#570=ORIENTED_EDGE('',*,*,#267,.F.);
#571=ORIENTED_EDGE('',*,*,#250,.F.);
#572=ORIENTED_EDGE('',*,*,#402,.F.);
#573=ORIENTED_EDGE('',*,*,#340,.F.);
#574=ORIENTED_EDGE('',*,*,#552,.F.);
#575=ORIENTED_EDGE('',*,*,#522,.F.);
#576=ORIENTED_EDGE('',*,*,#490,.F.);
#577=ORIENTED_EDGE('',*,*,#458,.F.);
#578=ORIENTED_EDGE('',*,*,#426,.F.);
#579=EDGE_LOOP('',(#570,#571,#572,#573,#574,#575,#576,#577,#578));
#580=FACE_OUTER_BOUND('',#579,.T.);
#581=ADVANCED_FACE('',(#580),#569,.T.);
#582=CARTESIAN_POINT('',(52.784823624511802,-9.5,44.654875789789642));
#583=DIRECTION('',(0.0,1.0,0.0));
#584=DIRECTION('',(1.0,0.0,0.0));
#585=AXIS2_PLACEMENT_3D('',#582,#583,#584);
#586=PLANE('',#585);
#587=ORIENTED_EDGE('',*,*,#440,.F.);
#588=ORIENTED_EDGE('',*,*,#473,.F.);
#589=ORIENTED_EDGE('',*,*,#504,.F.);
#590=ORIENTED_EDGE('',*,*,#537,.F.);
#591=ORIENTED_EDGE('',*,*,#559,.F.);
#592=ORIENTED_EDGE('',*,*,#326,.F.);
#593=ORIENTED_EDGE('',*,*,#409,.F.);
#594=ORIENTED_EDGE('',*,*,#235,.F.);
#595=ORIENTED_EDGE('',*,*,#282,.F.);
#596=EDGE_LOOP('',(#587,#588,#589,#590,#591,#592,#593,#594,#595));
#597=FACE_OUTER_BOUND('',#596,.T.);
#598=ADVANCED_FACE('',(#597),#586,.F.);
#599=CLOSED_SHELL('',(#254,#286,#344,#389,#414,#445,#478,#509,#542,#564,#581,#598));
#600=MANIFOLD_SOLID_BREP('426B',#599);
#601=ADVANCED_BREP_SHAPE_REPRESENTATION('ABSR1',(#212,#600),#28);
#602=SHAPE_REPRESENTATION_RELATIONSHIP('SRRPL1','',#601,#122);
ENDSEC;
END-ISO-10303-21;
