ISO-10303-21;
HEADER;
/****************************************************************
 * Generated by software with PDElib inside                    *
 * PDElib Version v51a, created Fri 09/10/2010                  *
 * ITI Transcendata (http://www.transcendata.com/)              *
 ****************************************************************/
FILE_DESCRIPTION((''),'2;1');
FILE_NAME('3d_GEX61NC.stp','2014-06-05T08:31:45',(''),(''),'Mechanical Desktop 2011','Mechanical Desktop 2011',', , ');
FILE_SCHEMA(('CONFIG_CONTROL_DESIGN'));
ENDSEC;
DATA;
#10=(NAMED_UNIT(*)PLANE_ANGLE_UNIT()SI_UNIT($,.RADIAN.));
#11=DIMENSIONAL_EXPONENTS(0.0,0.0,0.0,0.0,0.0,0.0,0.0);
#12=PLANE_ANGLE_MEASURE_WITH_UNIT(PLANE_ANGLE_MEASURE(0.0174532925),#10);
#16=(CONVERSION_BASED_UNIT('DEGREE',#12)NAMED_UNIT(#11)PLANE_ANGLE_UNIT());
#20=(NAMED_UNIT(*)SI_UNIT($,.STERADIAN.)SOLID_ANGLE_UNIT());
#24=(LENGTH_UNIT()NAMED_UNIT(*)SI_UNIT(.MILLI.,.METRE.));
#26=UNCERTAINTY_MEASURE_WITH_UNIT(LENGTH_MEASURE(0.000001),#24,'DISTANCE_ACCURACY_VALUE','');
#28=(GEOMETRIC_REPRESENTATION_CONTEXT(3)GLOBAL_UNCERTAINTY_ASSIGNED_CONTEXT((#26))GLOBAL_UNIT_ASSIGNED_CONTEXT((#16,#20,#24))REPRESENTATION_CONTEXT('','3D'));
#29=APPLICATION_CONTEXT('CONFIGURATION CONTROLLED 3D DESIGNS OF MECHANICAL PARTS AND ASSEMBLIES');
#30=APPLICATION_PROTOCOL_DEFINITION('INTERNATIONAL STANDARD','config_control_design',1995,#29);
#31=MECHANICAL_CONTEXT('3D Mechanical Parts',#29,'mechanical');
#32=PRODUCT('Product','Product',' ',(#31));
#33=PRODUCT_RELATED_PRODUCT_CATEGORY('detail',$,(#32));
#34=PRODUCT_CATEGORY('part',$);
#35=PRODUCT_CATEGORY_RELATIONSHIP('None','None',#34,#33);
#36=PERSON('1','Design','Joe',$,$,$);
#37=ORGANIZATION($,'None','None');
#38=PERSON_AND_ORGANIZATION(#36,#37);
#39=PERSON_AND_ORGANIZATION_ROLE('design_owner');
#40=CC_DESIGN_PERSON_AND_ORGANIZATION_ASSIGNMENT(#38,#39,(#32));
#41=PRODUCT_DEFINITION_FORMATION_WITH_SPECIFIED_SOURCE('None','None',#32,.BOUGHT.);
#42=PERSON('2','Creator','Joe',$,$,$);
#43=ORGANIZATION($,'None','None');
#44=PERSON_AND_ORGANIZATION(#42,#43);
#45=PERSON_AND_ORGANIZATION_ROLE('creator');
#46=CC_DESIGN_PERSON_AND_ORGANIZATION_ASSIGNMENT(#44,#45,(#41));
#47=PERSON('3','Supplier','Joe',$,$,$);
#48=ORGANIZATION($,'None','None');
#49=PERSON_AND_ORGANIZATION(#47,#48);
#50=PERSON_AND_ORGANIZATION_ROLE('design_supplier');
#51=CC_DESIGN_PERSON_AND_ORGANIZATION_ASSIGNMENT(#49,#50,(#41));
#52=APPROVAL_STATUS('approved');
#53=APPROVAL(#52,'None');
#54=PERSON('4','Approver','Joe',$,$,$);
#55=ORGANIZATION($,'None','None');
#56=PERSON_AND_ORGANIZATION(#54,#55);
#57=APPROVAL_ROLE('approver');
#58=APPROVAL_PERSON_ORGANIZATION(#56,#53,#57);
#59=COORDINATED_UNIVERSAL_TIME_OFFSET(8,$,.EXACT.);
#60=CALENDAR_DATE(1996,29,5);
#61=LOCAL_TIME(12,0,0.0,#59);
#62=DATE_AND_TIME(#60,#61);
#63=APPROVAL_DATE_TIME(#62,#53);
#64=CC_DESIGN_APPROVAL(#53,(#41));
#65=SECURITY_CLASSIFICATION_LEVEL('unclassified');
#66=SECURITY_CLASSIFICATION('security','None',#65);
#67=CC_DESIGN_SECURITY_CLASSIFICATION(#66,(#41));
#68=APPROVAL_STATUS('approved');
#69=APPROVAL(#68,'None');
#70=PERSON('5','Approver','Joe',$,$,$);
#71=ORGANIZATION($,'None','None');
#72=PERSON_AND_ORGANIZATION(#70,#71);
#73=APPROVAL_ROLE('approver');
#74=APPROVAL_PERSON_ORGANIZATION(#72,#69,#73);
#75=COORDINATED_UNIVERSAL_TIME_OFFSET(8,$,.EXACT.);
#76=CALENDAR_DATE(1996,29,5);
#77=LOCAL_TIME(12,0,0.0,#75);
#78=DATE_AND_TIME(#76,#77);
#79=APPROVAL_DATE_TIME(#78,#69);
#80=CC_DESIGN_APPROVAL(#69,(#66));
#81=PERSON('6','Classifier','Joe',$,$,$);
#82=ORGANIZATION($,'None','None');
#83=PERSON_AND_ORGANIZATION(#81,#82);
#84=PERSON_AND_ORGANIZATION_ROLE('classification_officer');
#85=CC_DESIGN_PERSON_AND_ORGANIZATION_ASSIGNMENT(#83,#84,(#66));
#86=COORDINATED_UNIVERSAL_TIME_OFFSET(8,$,.EXACT.);
#87=CALENDAR_DATE(1996,29,5);
#88=LOCAL_TIME(12,0,0.0,#86);
#89=DATE_AND_TIME(#87,#88);
#90=DATE_TIME_ROLE('classification_date');
#91=CC_DESIGN_DATE_AND_TIME_ASSIGNMENT(#89,#90,(#66));
#92=DESIGN_CONTEXT('Design Context',#29,'design');
#93=PRODUCT_DEFINITION('None','None',#41,#92);
#94=PERSON('7','Creator','Joe',$,$,$);
#95=ORGANIZATION($,'None','None');
#96=PERSON_AND_ORGANIZATION(#94,#95);
#97=PERSON_AND_ORGANIZATION_ROLE('creator');
#98=CC_DESIGN_PERSON_AND_ORGANIZATION_ASSIGNMENT(#96,#97,(#93));
#99=COORDINATED_UNIVERSAL_TIME_OFFSET(8,$,.EXACT.);
#100=CALENDAR_DATE(1996,29,5);
#101=LOCAL_TIME(12,0,0.0,#99);
#102=DATE_AND_TIME(#100,#101);
#103=DATE_TIME_ROLE('creation_date');
#104=CC_DESIGN_DATE_AND_TIME_ASSIGNMENT(#102,#103,(#93));
#105=APPROVAL_STATUS('approved');
#106=APPROVAL(#105,'None');
#107=PERSON('8','Approver','Joe',$,$,$);
#108=ORGANIZATION($,'None','None');
#109=PERSON_AND_ORGANIZATION(#107,#108);
#110=APPROVAL_ROLE('approver');
#111=APPROVAL_PERSON_ORGANIZATION(#109,#106,#110);
#112=COORDINATED_UNIVERSAL_TIME_OFFSET(8,$,.EXACT.);
#113=CALENDAR_DATE(1996,29,5);
#114=LOCAL_TIME(12,0,0.0,#112);
#115=DATE_AND_TIME(#113,#114);
#116=APPROVAL_DATE_TIME(#115,#106);
#117=CC_DESIGN_APPROVAL(#106,(#93));
#118=CARTESIAN_POINT('NONE',(0.0,0.0,0.0));
#119=DIRECTION('NONE',(0.0,0.0,1.0));
#120=DIRECTION('NONE',(1.0,0.0,0.0));
#121=AXIS2_PLACEMENT_3D('NONE',#118,#119,#120);
#122=SHAPE_REPRESENTATION('SR1',(#121),#28);
#123=PRODUCT_DEFINITION_SHAPE('PDS1','Test Part',#93);
#124=SHAPE_DEFINITION_REPRESENTATION(#123,#122);
#125=CARTESIAN_POINT('',(-29.000124782986177,-9.5,13.400000000000006));
#126=DIRECTION('',(0.0,0.0,-1.0));
#127=DIRECTION('',(0.0,1.0,0.0));
#128=AXIS2_PLACEMENT_3D('',#125,#126,#127);
#129=PLANE('',#128);
#130=CARTESIAN_POINT('',(19.500124782986177,-9.5,13.400000000000006));
#131=VERTEX_POINT('',#130);
#132=CARTESIAN_POINT('',(19.500124782986177,9.5,13.400000000000006));
#133=VERTEX_POINT('',#132);
#134=CARTESIAN_POINT('',(19.500124782986177,-5.416955E-015,13.400000000000004));
#135=DIRECTION('',(0.0,0.0,1.0));
#136=DIRECTION('',(0.707106781186548,0.707106781186547,0.0));
#137=AXIS2_PLACEMENT_3D('',#134,#135,#136);
#138=CIRCLE('',#137,9.5);
#139=EDGE_CURVE('',#131,#133,#138,.T.);
#140=ORIENTED_EDGE('',*,*,#139,.F.);
#141=CARTESIAN_POINT('',(-19.42062547436926,-9.5,13.400000000000006));
#142=VERTEX_POINT('',#141);
#143=CARTESIAN_POINT('',(19.500124782986177,-9.5,13.400000000000006));
#144=DIRECTION('',(-1.0,0.0,0.0));
#145=VECTOR('',#144,38.920750257355436);
#146=LINE('',#143,#145);
#147=EDGE_CURVE('',#131,#142,#146,.T.);
#148=ORIENTED_EDGE('',*,*,#147,.T.);
#149=CARTESIAN_POINT('',(-19.42062547436926,9.5,13.400000000000006));
#150=VERTEX_POINT('',#149);
#151=CARTESIAN_POINT('',(-19.420625474369263,8.455979E-015,13.400000000000006));
#152=DIRECTION('',(0.0,0.0,1.0));
#153=DIRECTION('',(-1.0,0.0,0.0));
#154=AXIS2_PLACEMENT_3D('',#151,#152,#153);
#155=ELLIPSE('',#154,9.579499308616919,9.5);
#156=EDGE_CURVE('',#150,#142,#155,.T.);
#157=ORIENTED_EDGE('',*,*,#156,.F.);
#158=CARTESIAN_POINT('',(-19.42062547436926,9.5,13.400000000000006));
#159=DIRECTION('',(1.0,0.0,0.0));
#160=VECTOR('',#159,38.920750257355436);
#161=LINE('',#158,#160);
#162=EDGE_CURVE('',#150,#133,#161,.T.);
#163=ORIENTED_EDGE('',*,*,#162,.T.);
#164=EDGE_LOOP('',(#140,#148,#157,#163));
#165=FACE_OUTER_BOUND('',#164,.T.);
#166=ADVANCED_FACE('',(#165),#129,.T.);
#167=CARTESIAN_POINT('',(19.500124782986177,-2.664535E-015,28.383970717370815));
#168=DIRECTION('',(0.0,1.836910E-016,1.0));
#169=DIRECTION('',(0.707106781186548,0.707106781186547,0.0));
#170=AXIS2_PLACEMENT_3D('',#167,#168,#169);
#171=CYLINDRICAL_SURFACE('',#170,9.5);
#172=ORIENTED_EDGE('',*,*,#139,.T.);
#173=CARTESIAN_POINT('',(19.500124782986177,9.499999999999998,36.246142415431876));
#174=VERTEX_POINT('',#173);
#175=CARTESIAN_POINT('',(19.500124782986177,9.499999999999993,13.400000000000006));
#176=DIRECTION('',(0.0,0.0,1.0));
#177=VECTOR('',#176,22.846142415431871);
#178=LINE('',#175,#177);
#179=EDGE_CURVE('',#133,#174,#178,.T.);
#180=ORIENTED_EDGE('',*,*,#179,.T.);
#181=CARTESIAN_POINT('',(19.500124782986177,-9.499999999999988,36.246142415431883));
#182=VERTEX_POINT('',#181);
#183=CARTESIAN_POINT('',(19.500124782986177,-1.220325E-015,36.246142415431883));
#184=DIRECTION('',(-0.101913716831105,1.827345E-016,0.994793241996381));
#185=DIRECTION('',(0.994793241996381,0.0,0.101913716831105));
#186=AXIS2_PLACEMENT_3D('',#183,#184,#185);
#187=ELLIPSE('',#186,9.549723097168531,9.500000000000002);
#188=EDGE_CURVE('',#174,#182,#187,.F.);
#189=ORIENTED_EDGE('',*,*,#188,.T.);
#190=CARTESIAN_POINT('',(19.500124782986177,-9.499999999999988,36.246142415431883));
#191=DIRECTION('',(0.0,0.0,-1.0));
#192=VECTOR('',#191,22.846142415431878);
#193=LINE('',#190,#192);
#194=EDGE_CURVE('',#182,#131,#193,.T.);
#195=ORIENTED_EDGE('',*,*,#194,.T.);
#196=EDGE_LOOP('',(#172,#180,#189,#195));
#197=FACE_OUTER_BOUND('',#196,.T.);
#198=ADVANCED_FACE('',(#197),#171,.T.);
#199=CARTESIAN_POINT('',(29.487881634381075,9.5,43.367941434741624));
#200=DIRECTION('',(0.0,1.0,0.0));
#201=DIRECTION('',(1.0,0.0,0.0));
#202=AXIS2_PLACEMENT_3D('',#199,#200,#201);
#203=PLANE('',#202);
#204=CARTESIAN_POINT('',(93.088427734375131,9.5,43.785053168402897));
#205=VERTEX_POINT('',#204);
#206=CARTESIAN_POINT('',(19.500124782986163,9.499999999999998,36.246142415431883));
#207=DIRECTION('',(0.994793241996381,2.401343E-017,0.101913716831105));
#208=VECTOR('',#207,73.973464881717305);
#209=LINE('',#206,#208);
#210=EDGE_CURVE('',#174,#205,#209,.T.);
#211=ORIENTED_EDGE('',*,*,#210,.F.);
#212=ORIENTED_EDGE('',*,*,#179,.F.);
#213=ORIENTED_EDGE('',*,*,#162,.F.);
#214=CARTESIAN_POINT('',(-13.66499574227471,9.500000000000016,57.796761308476583));
#215=VERTEX_POINT('',#214);
#216=CARTESIAN_POINT('',(-13.66499574227471,9.500000000000005,57.796761308476583));
#217=DIRECTION('',(-0.128564881022905,-1.983945E-016,-0.991701099811615));
#218=VECTOR('',#217,44.7682888694086);
#219=LINE('',#216,#218);
#220=EDGE_CURVE('',#215,#150,#219,.T.);
#221=ORIENTED_EDGE('',*,*,#220,.F.);
#222=CARTESIAN_POINT('',(1.421085E-013,9.500000000000014,65.899810112847206));
#223=VERTEX_POINT('',#222);
#224=CARTESIAN_POINT('',(1.421085E-013,9.500000000000016,65.899810112847206));
#225=DIRECTION('',(-0.860145914709643,0.0,-0.51004804225515));
#226=VECTOR('',#225,15.886834441209553);
#227=LINE('',#224,#226);
#228=EDGE_CURVE('',#223,#215,#227,.T.);
#229=ORIENTED_EDGE('',*,*,#228,.F.);
#230=CARTESIAN_POINT('',(92.093484157986225,9.500000000000014,65.899810112847291));
#231=VERTEX_POINT('',#230);
#232=CARTESIAN_POINT('',(92.093484157986225,9.500000000000014,65.899810112847291));
#233=DIRECTION('',(-1.0,0.0,0.0));
#234=VECTOR('',#233,92.093484157986083);
#235=LINE('',#232,#234);
#236=EDGE_CURVE('',#231,#223,#235,.T.);
#237=ORIENTED_EDGE('',*,*,#236,.F.);
#238=CARTESIAN_POINT('',(93.097930792198824,9.500000000000014,64.814043531612072));
#239=VERTEX_POINT('',#238);
#240=CARTESIAN_POINT('',(92.029443723830454,9.500000000000014,64.8330741554947));
#241=DIRECTION('',(9.156786E-017,-1.0,8.470976E-017));
#242=DIRECTION('',(0.734061508710125,1.247414E-016,0.67908298567275));
#243=AXIS2_PLACEMENT_3D('',#240,#241,#242);
#244=CIRCLE('',#243,1.068656530376251);
#245=EDGE_CURVE('',#239,#231,#244,.T.);
#246=ORIENTED_EDGE('',*,*,#245,.F.);
#247=CARTESIAN_POINT('',(94.000000000000128,9.5,44.826161024306316));
#248=VERTEX_POINT('',#247);
#249=CARTESIAN_POINT('',(94.000000000000128,9.500000000000011,44.826161024306316));
#250=DIRECTION('',(-0.045084913116945,1.775626E-016,0.998983158321119));
#251=VECTOR('',#250,20.008227707158941);
#252=LINE('',#249,#251);
#253=EDGE_CURVE('',#248,#239,#252,.T.);
#254=ORIENTED_EDGE('',*,*,#253,.F.);
#255=CARTESIAN_POINT('',(92.696207758361737,9.5,45.048103510633865));
#256=DIRECTION('',(-9.104066E-017,-1.0,7.971330E-017));
#257=DIRECTION('',(0.752360741001507,-1.210067E-016,-0.658751330472784));
#258=AXIS2_PLACEMENT_3D('',#255,#256,#257);
#259=CIRCLE('',#258,1.322547797470371);
#260=EDGE_CURVE('',#205,#248,#259,.T.);
#261=ORIENTED_EDGE('',*,*,#260,.F.);
#262=EDGE_LOOP('',(#211,#212,#213,#221,#229,#237,#246,#254,#261));
#263=FACE_OUTER_BOUND('',#262,.T.);
#264=ADVANCED_FACE('',(#263),#203,.T.);
#265=CARTESIAN_POINT('',(-21.497534072184536,-9.499999999999986,49.578541902025862));
#266=DIRECTION('',(0.0,1.0,-1.836910E-016));
#267=DIRECTION('',(-0.722932541563614,1.269155E-016,0.690918620640936));
#268=AXIS2_PLACEMENT_3D('',#265,#266,#267);
#269=CYLINDRICAL_SURFACE('',#268,3.083676476795362);
#270=CARTESIAN_POINT('',(-23.276443142360762,-3.581704727863543,52.097379557291845));
#271=VERTEX_POINT('',#270);
#272=CARTESIAN_POINT('',(-24.094308810763778,1.776357E-015,51.241617838541629));
#273=VERTEX_POINT('',#272);
#274=CARTESIAN_POINT('',(-23.276443142360762,-3.581704727863543,52.097379557291845));
#275=CARTESIAN_POINT('',(-23.309721649802899,-3.508053047037518,52.073876875963023));
#276=CARTESIAN_POINT('',(-23.342079348251151,-3.434103320199661,52.050035529021798));
#277=CARTESIAN_POINT('',(-23.486787641219244,-3.092278842974084,51.93911495156371));
#278=CARTESIAN_POINT('',(-23.587854649592231,-2.821312976152282,51.849041491269354));
#279=CARTESIAN_POINT('',(-23.764349806144445,-2.273905642846233,51.672856812658175));
#280=CARTESIAN_POINT('',(-23.839802358382965,-1.997497736701161,51.586665780622049));
#281=CARTESIAN_POINT('',(-23.963314805987256,-1.438917596510994,51.432918130324296));
#282=CARTESIAN_POINT('',(-24.011392442036289,-1.156731066542636,51.365425684526592));
#283=CARTESIAN_POINT('',(-24.07693091511203,-0.584635225749247,51.269443879410481));
#284=CARTESIAN_POINT('',(-24.094308810763785,-0.294605328485072,51.241617838541615));
#285=CARTESIAN_POINT('',(-24.094308810763785,1.601497E-014,51.241617838541615));
#286=B_SPLINE_CURVE_WITH_KNOTS('',3,(#274,#275,#276,#277,#278,#279,#280,#281,#282,#283,#284,#285),.UNSPECIFIED.,.F.,.U.,(4,2,2,2,2,4),(8.658772475535567,8.903911382188163,9.787727367643427,10.671543353098693,11.555359338553959,12.439175324009224),.UNSPECIFIED.);
#287=EDGE_CURVE('',#271,#273,#286,.T.);
#288=ORIENTED_EDGE('',*,*,#287,.F.);
#289=CARTESIAN_POINT('',(-23.276443142360762,3.581704727863555,52.097379557291845));
#290=VERTEX_POINT('',#289);
#291=CARTESIAN_POINT('',(-23.276443142360762,-3.581704727863542,52.097379557291845));
#292=DIRECTION('',(0.0,1.0,0.0));
#293=VECTOR('',#292,7.163409455727098);
#294=LINE('',#291,#293);
#295=EDGE_CURVE('',#271,#290,#294,.T.);
#296=ORIENTED_EDGE('',*,*,#295,.T.);
#297=CARTESIAN_POINT('',(-24.094308810763785,1.748601E-015,51.241617838541615));
#298=CARTESIAN_POINT('',(-24.094308810763785,0.294603204811927,51.241617838541615));
#299=CARTESIAN_POINT('',(-24.076931163982817,0.584631149815063,51.269443474782264));
#300=CARTESIAN_POINT('',(-24.011393548285636,1.156723313376852,51.365424104565747));
#301=CARTESIAN_POINT('',(-23.963316519368803,1.438908114698181,51.432915796450629));
#302=CARTESIAN_POINT('',(-23.839805576020737,1.997484918175188,51.586661976343485));
#303=CARTESIAN_POINT('',(-23.764353922041138,2.273891220308826,51.672852288273276));
#304=CARTESIAN_POINT('',(-23.58786083275622,2.821295455612787,51.849035734686495));
#305=CARTESIAN_POINT('',(-23.486794993963123,3.092259829767066,51.939108679606115));
#306=CARTESIAN_POINT('',(-23.342085289747068,3.434089741603961,52.050031151184882));
#307=CARTESIAN_POINT('',(-23.309724704998171,3.508046285307987,52.073874718255652));
#308=CARTESIAN_POINT('',(-23.276443142360762,3.581704727863555,52.097379557291845));
#309=B_SPLINE_CURVE_WITH_KNOTS('',3,(#297,#298,#299,#300,#301,#302,#303,#304,#305,#306,#307,#308),.UNSPECIFIED.,.F.,.U.,(4,2,2,2,2,4),(12.438912617390265,13.322722231826042,14.206531846261816,15.090341460697591,15.974151075133367,16.219312197613647),.UNSPECIFIED.);
#310=EDGE_CURVE('',#273,#290,#309,.T.);
#311=ORIENTED_EDGE('',*,*,#310,.F.);
#312=EDGE_LOOP('',(#288,#296,#311));
#313=FACE_OUTER_BOUND('',#312,.T.);
#314=ADVANCED_FACE('',(#313),#269,.T.);
#315=CARTESIAN_POINT('',(1.421085E-013,-9.499999999999986,65.899810112847206));
#316=DIRECTION('',(-0.51004804225515,1.580010E-016,0.860145914709643));
#317=DIRECTION('',(0.0,1.0,0.0));
#318=AXIS2_PLACEMENT_3D('',#315,#316,#317);
#319=PLANE('',#318);
#320=CARTESIAN_POINT('',(-13.66499574227471,-9.499999999999984,57.796761308476583));
#321=VERTEX_POINT('',#320);
#322=CARTESIAN_POINT('',(-13.66499574227471,1.661126E-014,57.796761308476576));
#323=DIRECTION('',(0.51004804225515,-1.580010E-016,-0.860145914709643));
#324=DIRECTION('',(-0.860145914709643,7.361909E-017,-0.51004804225515));
#325=AXIS2_PLACEMENT_3D('',#322,#323,#324);
#326=ELLIPSE('',#325,12.064512625548057,9.5);
#327=EDGE_CURVE('',#321,#271,#326,.T.);
#328=ORIENTED_EDGE('',*,*,#327,.F.);
#329=CARTESIAN_POINT('',(1.421085E-013,-9.499999999999986,65.899810112847206));
#330=VERTEX_POINT('',#329);
#331=CARTESIAN_POINT('',(-13.66499574227471,-9.499999999999984,57.796761308476583));
#332=DIRECTION('',(0.860145914709643,0.0,0.51004804225515));
#333=VECTOR('',#332,15.886834441209553);
#334=LINE('',#331,#333);
#335=EDGE_CURVE('',#321,#330,#334,.T.);
#336=ORIENTED_EDGE('',*,*,#335,.T.);
#337=CARTESIAN_POINT('',(1.421085E-013,-9.499999999999986,65.899810112847206));
#338=DIRECTION('',(0.0,1.0,0.0));
#339=VECTOR('',#338,19.0);
#340=LINE('',#337,#339);
#341=EDGE_CURVE('',#330,#223,#340,.T.);
#342=ORIENTED_EDGE('',*,*,#341,.T.);
#343=ORIENTED_EDGE('',*,*,#228,.T.);
#344=CARTESIAN_POINT('',(-13.66499574227471,2.400408E-015,57.796761308476576));
#345=DIRECTION('',(0.51004804225515,-1.580010E-016,-0.860145914709643));
#346=DIRECTION('',(-0.860145914709643,-2.208573E-016,-0.51004804225515));
#347=AXIS2_PLACEMENT_3D('',#344,#345,#346);
#348=ELLIPSE('',#347,12.064512625548053,9.5);
#349=EDGE_CURVE('',#290,#215,#348,.T.);
#350=ORIENTED_EDGE('',*,*,#349,.F.);
#351=ORIENTED_EDGE('',*,*,#295,.F.);
#352=EDGE_LOOP('',(#328,#336,#342,#343,#350,#351));
#353=FACE_OUTER_BOUND('',#352,.T.);
#354=ADVANCED_FACE('',(#353),#319,.T.);
#355=CARTESIAN_POINT('',(-14.732258998505428,8.881784E-016,49.564294272599469));
#356=DIRECTION('',(-0.128564881022905,-1.821665E-016,-0.991701099811615));
#357=DIRECTION('',(-0.70123857258695,0.707106781186548,0.090909099193738));
#358=AXIS2_PLACEMENT_3D('',#355,#356,#357);
#359=CYLINDRICAL_SURFACE('',#358,9.499999999999998);
#360=ORIENTED_EDGE('',*,*,#156,.T.);
#361=CARTESIAN_POINT('',(-19.420625474369263,-9.499999999999989,13.400000000000006));
#362=DIRECTION('',(0.128564881022905,1.983945E-016,0.991701099811615));
#363=VECTOR('',#362,44.7682888694086);
#364=LINE('',#361,#363);
#365=EDGE_CURVE('',#142,#321,#364,.T.);
#366=ORIENTED_EDGE('',*,*,#365,.T.);
#367=ORIENTED_EDGE('',*,*,#327,.T.);
#368=ORIENTED_EDGE('',*,*,#287,.T.);
#369=ORIENTED_EDGE('',*,*,#310,.T.);
#370=ORIENTED_EDGE('',*,*,#349,.T.);
#371=ORIENTED_EDGE('',*,*,#220,.T.);
#372=EDGE_LOOP('',(#360,#366,#367,#368,#369,#370,#371));
#373=FACE_OUTER_BOUND('',#372,.T.);
#374=ADVANCED_FACE('',(#373),#359,.T.);
#375=CARTESIAN_POINT('',(29.000124782986177,-9.5,37.219390190972177));
#376=DIRECTION('',(0.101913716831105,-1.827345E-016,-0.994793241996381));
#377=DIRECTION('',(0.0,1.0,0.0));
#378=AXIS2_PLACEMENT_3D('',#375,#376,#377);
#379=PLANE('',#378);
#380=ORIENTED_EDGE('',*,*,#210,.T.);
#381=CARTESIAN_POINT('',(93.088427734375131,-9.499999999999986,43.785053168402897));
#382=VERTEX_POINT('',#381);
#383=CARTESIAN_POINT('',(93.088427734375131,-9.499999999999986,43.785053168402897));
#384=DIRECTION('',(0.0,1.0,0.0));
#385=VECTOR('',#384,18.999999999999986);
#386=LINE('',#383,#385);
#387=EDGE_CURVE('',#382,#205,#386,.T.);
#388=ORIENTED_EDGE('',*,*,#387,.F.);
#389=CARTESIAN_POINT('',(93.088427734375145,-9.499999999999986,43.785053168402897));
#390=DIRECTION('',(-0.994793241996381,-2.401343E-017,-0.101913716831105));
#391=VECTOR('',#390,73.973464881717305);
#392=LINE('',#389,#391);
#393=EDGE_CURVE('',#382,#182,#392,.T.);
#394=ORIENTED_EDGE('',*,*,#393,.T.);
#395=ORIENTED_EDGE('',*,*,#188,.F.);
#396=EDGE_LOOP('',(#380,#388,#394,#395));
#397=FACE_OUTER_BOUND('',#396,.T.);
#398=ADVANCED_FACE('',(#397),#379,.T.);
#399=CARTESIAN_POINT('',(92.696207758361737,-9.499999999999986,45.048103510633865));
#400=DIRECTION('',(0.0,1.0,-1.836910E-016));
#401=DIRECTION('',(0.752360741001507,-1.210067E-016,-0.658751330472784));
#402=AXIS2_PLACEMENT_3D('',#399,#400,#401);
#403=CYLINDRICAL_SURFACE('',#402,1.322547797470371);
#404=ORIENTED_EDGE('',*,*,#260,.T.);
#405=CARTESIAN_POINT('',(94.000000000000128,-9.499999999999986,44.826161024306316));
#406=VERTEX_POINT('',#405);
#407=CARTESIAN_POINT('',(94.000000000000128,-9.499999999999986,44.826161024306316));
#408=DIRECTION('',(0.0,1.0,0.0));
#409=VECTOR('',#408,18.999999999999986);
#410=LINE('',#407,#409);
#411=EDGE_CURVE('',#406,#248,#410,.T.);
#412=ORIENTED_EDGE('',*,*,#411,.F.);
#413=CARTESIAN_POINT('',(92.696207758361737,-9.499999999999986,45.048103510633865));
#414=DIRECTION('',(9.104066E-017,1.0,-7.971330E-017));
#415=DIRECTION('',(0.752360741001507,-1.210067E-016,-0.658751330472784));
#416=AXIS2_PLACEMENT_3D('',#413,#414,#415);
#417=CIRCLE('',#416,1.322547797470371);
#418=EDGE_CURVE('',#406,#382,#417,.T.);
#419=ORIENTED_EDGE('',*,*,#418,.T.);
#420=ORIENTED_EDGE('',*,*,#387,.T.);
#421=EDGE_LOOP('',(#404,#412,#419,#420));
#422=FACE_OUTER_BOUND('',#421,.T.);
#423=ADVANCED_FACE('',(#422),#403,.T.);
#424=CARTESIAN_POINT('',(94.000000000000128,-9.499999999999986,44.826161024306316));
#425=DIRECTION('',(0.998983158321119,8.281691E-018,0.045084913116945));
#426=DIRECTION('',(0.0,-1.0,0.0));
#427=AXIS2_PLACEMENT_3D('',#424,#425,#426);
#428=PLANE('',#427);
#429=ORIENTED_EDGE('',*,*,#253,.T.);
#430=CARTESIAN_POINT('',(93.097930792198824,-9.499999999999986,64.814043531612072));
#431=VERTEX_POINT('',#430);
#432=CARTESIAN_POINT('',(93.097930792198824,-9.499999999999986,64.814043531612072));
#433=DIRECTION('',(0.0,1.0,0.0));
#434=VECTOR('',#433,19.0);
#435=LINE('',#432,#434);
#436=EDGE_CURVE('',#431,#239,#435,.T.);
#437=ORIENTED_EDGE('',*,*,#436,.F.);
#438=CARTESIAN_POINT('',(93.097930792198824,-9.499999999999986,64.814043531612072));
#439=DIRECTION('',(0.045084913116945,-1.775626E-016,-0.998983158321119));
#440=VECTOR('',#439,20.008227707158941);
#441=LINE('',#438,#440);
#442=EDGE_CURVE('',#431,#406,#441,.T.);
#443=ORIENTED_EDGE('',*,*,#442,.T.);
#444=ORIENTED_EDGE('',*,*,#411,.T.);
#445=EDGE_LOOP('',(#429,#437,#443,#444));
#446=FACE_OUTER_BOUND('',#445,.T.);
#447=ADVANCED_FACE('',(#446),#428,.T.);
#448=CARTESIAN_POINT('',(92.029443723830454,-9.499999999999986,64.8330741554947));
#449=DIRECTION('',(0.0,1.0,-1.836910E-016));
#450=DIRECTION('',(0.734061508710125,1.247414E-016,0.67908298567275));
#451=AXIS2_PLACEMENT_3D('',#448,#449,#450);
#452=CYLINDRICAL_SURFACE('',#451,1.068656530376251);
#453=ORIENTED_EDGE('',*,*,#245,.T.);
#454=CARTESIAN_POINT('',(92.093484157986225,-9.499999999999986,65.899810112847291));
#455=VERTEX_POINT('',#454);
#456=CARTESIAN_POINT('',(92.093484157986225,-9.499999999999986,65.899810112847291));
#457=DIRECTION('',(0.0,1.0,0.0));
#458=VECTOR('',#457,19.0);
#459=LINE('',#456,#458);
#460=EDGE_CURVE('',#455,#231,#459,.T.);
#461=ORIENTED_EDGE('',*,*,#460,.F.);
#462=CARTESIAN_POINT('',(92.029443723830454,-9.499999999999986,64.8330741554947));
#463=DIRECTION('',(-9.156786E-017,1.0,-8.470976E-017));
#464=DIRECTION('',(0.734061508710125,1.247414E-016,0.67908298567275));
#465=AXIS2_PLACEMENT_3D('',#462,#463,#464);
#466=CIRCLE('',#465,1.068656530376251);
#467=EDGE_CURVE('',#455,#431,#466,.T.);
#468=ORIENTED_EDGE('',*,*,#467,.T.);
#469=ORIENTED_EDGE('',*,*,#436,.T.);
#470=EDGE_LOOP('',(#453,#461,#468,#469));
#471=FACE_OUTER_BOUND('',#470,.T.);
#472=ADVANCED_FACE('',(#471),#452,.T.);
#473=CARTESIAN_POINT('',(92.093484157986225,-9.499999999999986,65.899810112847291));
#474=DIRECTION('',(0.0,0.0,1.0));
#475=DIRECTION('',(0.0,-1.0,0.0));
#476=AXIS2_PLACEMENT_3D('',#473,#474,#475);
#477=PLANE('',#476);
#478=ORIENTED_EDGE('',*,*,#236,.T.);
#479=ORIENTED_EDGE('',*,*,#341,.F.);
#480=CARTESIAN_POINT('',(1.421085E-013,-9.499999999999986,65.899810112847206));
#481=DIRECTION('',(1.0,0.0,0.0));
#482=VECTOR('',#481,92.093484157986083);
#483=LINE('',#480,#482);
#484=EDGE_CURVE('',#330,#455,#483,.T.);
#485=ORIENTED_EDGE('',*,*,#484,.T.);
#486=ORIENTED_EDGE('',*,*,#460,.T.);
#487=EDGE_LOOP('',(#478,#479,#485,#486));
#488=FACE_OUTER_BOUND('',#487,.T.);
#489=ADVANCED_FACE('',(#488),#477,.T.);
#490=CARTESIAN_POINT('',(29.487881634381075,-9.499999999999986,43.367941434741624));
#491=DIRECTION('',(0.0,1.0,0.0));
#492=DIRECTION('',(1.0,0.0,0.0));
#493=AXIS2_PLACEMENT_3D('',#490,#491,#492);
#494=PLANE('',#493);
#495=ORIENTED_EDGE('',*,*,#393,.F.);
#496=ORIENTED_EDGE('',*,*,#418,.F.);
#497=ORIENTED_EDGE('',*,*,#442,.F.);
#498=ORIENTED_EDGE('',*,*,#467,.F.);
#499=ORIENTED_EDGE('',*,*,#484,.F.);
#500=ORIENTED_EDGE('',*,*,#335,.F.);
#501=ORIENTED_EDGE('',*,*,#365,.F.);
#502=ORIENTED_EDGE('',*,*,#147,.F.);
#503=ORIENTED_EDGE('',*,*,#194,.F.);
#504=EDGE_LOOP('',(#495,#496,#497,#498,#499,#500,#501,#502,#503));
#505=FACE_OUTER_BOUND('',#504,.T.);
#506=ADVANCED_FACE('',(#505),#494,.F.);
#507=CLOSED_SHELL('',(#166,#198,#264,#314,#354,#374,#398,#423,#447,#472,#489,#506));
#508=MANIFOLD_SOLID_BREP('4266',#507);
#509=CARTESIAN_POINT('',(0.0,0.0,6.700000000000003));
#510=DIRECTION('',(0.0,0.0,1.0));
#511=DIRECTION('',(1.0,0.0,0.0));
#512=AXIS2_PLACEMENT_3D('',#509,#510,#511);
#513=CYLINDRICAL_SURFACE('',#512,29.000124782986148);
#514=CARTESIAN_POINT('',(29.000124782986148,0.0,13.400000000000006));
#515=VERTEX_POINT('',#514);
#516=CARTESIAN_POINT('',(29.000124782986148,0.0,0.0));
#517=VERTEX_POINT('',#516);
#518=CARTESIAN_POINT('',(29.000124782986148,0.0,13.400000000000006));
#519=DIRECTION('',(0.0,0.0,-1.0));
#520=VECTOR('',#519,13.400000000000006);
#521=LINE('',#518,#520);
#522=EDGE_CURVE('',#515,#517,#521,.T.);
#523=ORIENTED_EDGE('',*,*,#522,.F.);
#524=CARTESIAN_POINT('',(-29.000124782986148,-3.551374E-015,13.400000000000006));
#525=VERTEX_POINT('',#524);
#526=CARTESIAN_POINT('',(0.0,0.0,13.400000000000006));
#527=DIRECTION('',(0.0,0.0,1.0));
#528=DIRECTION('',(1.0,0.0,0.0));
#529=AXIS2_PLACEMENT_3D('',#526,#527,#528);
#530=CIRCLE('',#529,29.000124782986148);
#531=EDGE_CURVE('',#525,#515,#530,.T.);
#532=ORIENTED_EDGE('',*,*,#531,.F.);
#533=CARTESIAN_POINT('',(-29.000124782986148,-3.551374E-015,0.0));
#534=VERTEX_POINT('',#533);
#535=CARTESIAN_POINT('',(-29.000124782986148,-3.551374E-015,13.400000000000006));
#536=DIRECTION('',(0.0,0.0,-1.0));
#537=VECTOR('',#536,13.400000000000006);
#538=LINE('',#535,#537);
#539=EDGE_CURVE('',#525,#534,#538,.T.);
#540=ORIENTED_EDGE('',*,*,#539,.T.);
#541=CARTESIAN_POINT('',(0.0,0.0,0.0));
#542=DIRECTION('',(0.0,0.0,-1.0));
#543=DIRECTION('',(1.0,0.0,0.0));
#544=AXIS2_PLACEMENT_3D('',#541,#542,#543);
#545=CIRCLE('',#544,29.000124782986148);
#546=EDGE_CURVE('',#517,#534,#545,.T.);
#547=ORIENTED_EDGE('',*,*,#546,.F.);
#548=EDGE_LOOP('',(#523,#532,#540,#547));
#549=FACE_OUTER_BOUND('',#548,.T.);
#550=ADVANCED_FACE('',(#549),#513,.T.);
#551=CARTESIAN_POINT('',(0.0,0.0,6.700000000000003));
#552=DIRECTION('',(0.0,0.0,1.0));
#553=DIRECTION('',(1.0,0.0,0.0));
#554=AXIS2_PLACEMENT_3D('',#551,#552,#553);
#555=CYLINDRICAL_SURFACE('',#554,29.000124782986148);
#556=ORIENTED_EDGE('',*,*,#522,.T.);
#557=CARTESIAN_POINT('',(0.0,0.0,0.0));
#558=DIRECTION('',(0.0,0.0,-1.0));
#559=DIRECTION('',(1.0,0.0,0.0));
#560=AXIS2_PLACEMENT_3D('',#557,#558,#559);
#561=CIRCLE('',#560,29.000124782986148);
#562=EDGE_CURVE('',#534,#517,#561,.T.);
#563=ORIENTED_EDGE('',*,*,#562,.F.);
#564=ORIENTED_EDGE('',*,*,#539,.F.);
#565=CARTESIAN_POINT('',(0.0,0.0,13.400000000000006));
#566=DIRECTION('',(0.0,0.0,1.0));
#567=DIRECTION('',(1.0,0.0,0.0));
#568=AXIS2_PLACEMENT_3D('',#565,#566,#567);
#569=CIRCLE('',#568,29.000124782986148);
#570=EDGE_CURVE('',#515,#525,#569,.T.);
#571=ORIENTED_EDGE('',*,*,#570,.F.);
#572=EDGE_LOOP('',(#556,#563,#564,#571));
#573=FACE_OUTER_BOUND('',#572,.T.);
#574=ADVANCED_FACE('',(#573),#555,.T.);
#575=CARTESIAN_POINT('',(0.0,0.0,0.0));
#576=DIRECTION('',(0.0,0.0,-1.0));
#577=DIRECTION('',(-1.0,0.0,0.0));
#578=AXIS2_PLACEMENT_3D('',#575,#576,#577);
#579=PLANE('',#578);
#580=ORIENTED_EDGE('',*,*,#546,.T.);
#581=ORIENTED_EDGE('',*,*,#562,.T.);
#582=EDGE_LOOP('',(#580,#581));
#583=FACE_OUTER_BOUND('',#582,.T.);
#584=ADVANCED_FACE('',(#583),#579,.T.);
#585=CARTESIAN_POINT('',(0.0,0.0,13.400000000000006));
#586=DIRECTION('',(0.0,0.0,1.0));
#587=DIRECTION('',(1.0,0.0,0.0));
#588=AXIS2_PLACEMENT_3D('',#585,#586,#587);
#589=PLANE('',#588);
#590=ORIENTED_EDGE('',*,*,#570,.T.);
#591=ORIENTED_EDGE('',*,*,#531,.T.);
#592=EDGE_LOOP('',(#590,#591));
#593=FACE_OUTER_BOUND('',#592,.T.);
#594=ADVANCED_FACE('',(#593),#589,.T.);
#595=CLOSED_SHELL('',(#550,#574,#584,#594));
#596=MANIFOLD_SOLID_BREP('4265',#595);
#597=ADVANCED_BREP_SHAPE_REPRESENTATION('ABSR1',(#508,#596),#28);
#598=SHAPE_REPRESENTATION_RELATIONSHIP('SRRPL1','',#597,#122);
ENDSEC;
END-ISO-10303-21;
