ISO-10303-21;
HEADER;
/****************************************************************
 * Generated by software with PDElib inside                    *
 * PDElib Version v51a, created Fri 09/10/2010                  *
 * ITI Transcendata (http://www.transcendata.com/)              *
 ****************************************************************/
FILE_DESCRIPTION((''),'2;1');
FILE_NAME('3d_DM0T0080.stp','2014-06-05T08:09:19',(''),(''),'Mechanical Desktop 2011','Mechanical Desktop 2011',', , ');
FILE_SCHEMA(('CONFIG_CONTROL_DESIGN'));
ENDSEC;
DATA;
#10=(NAMED_UNIT(*)PLANE_ANGLE_UNIT()SI_UNIT($,.RADIAN.));
#11=DIMENSIONAL_EXPONENTS(0.0,0.0,0.0,0.0,0.0,0.0,0.0);
#12=PLANE_ANGLE_MEASURE_WITH_UNIT(PLANE_ANGLE_MEASURE(0.0174532925),#10);
#16=(CONVERSION_BASED_UNIT('DEGREE',#12)NAMED_UNIT(#11)PLANE_ANGLE_UNIT());
#20=(NAMED_UNIT(*)SI_UNIT($,.STERADIAN.)SOLID_ANGLE_UNIT());
#24=(LENGTH_UNIT()NAMED_UNIT(*)SI_UNIT(.MILLI.,.METRE.));
#26=UNCERTAINTY_MEASURE_WITH_UNIT(LENGTH_MEASURE(0.000001),#24,'DISTANCE_ACCURACY_VALUE','');
#28=(GEOMETRIC_REPRESENTATION_CONTEXT(3)GLOBAL_UNCERTAINTY_ASSIGNED_CONTEXT((#26))GLOBAL_UNIT_ASSIGNED_CONTEXT((#16,#20,#24))REPRESENTATION_CONTEXT('','3D'));
#29=APPLICATION_CONTEXT('CONFIGURATION CONTROLLED 3D DESIGNS OF MECHANICAL PARTS AND ASSEMBLIES');
#30=APPLICATION_PROTOCOL_DEFINITION('INTERNATIONAL STANDARD','config_control_design',1995,#29);
#31=MECHANICAL_CONTEXT('3D Mechanical Parts',#29,'mechanical');
#32=PRODUCT('Product','Product',' ',(#31));
#33=PRODUCT_RELATED_PRODUCT_CATEGORY('detail',$,(#32));
#34=PRODUCT_CATEGORY('part',$);
#35=PRODUCT_CATEGORY_RELATIONSHIP('None','None',#34,#33);
#36=PERSON('1','Design','Joe',$,$,$);
#37=ORGANIZATION($,'None','None');
#38=PERSON_AND_ORGANIZATION(#36,#37);
#39=PERSON_AND_ORGANIZATION_ROLE('design_owner');
#40=CC_DESIGN_PERSON_AND_ORGANIZATION_ASSIGNMENT(#38,#39,(#32));
#41=PRODUCT_DEFINITION_FORMATION_WITH_SPECIFIED_SOURCE('None','None',#32,.BOUGHT.);
#42=PERSON('2','Creator','Joe',$,$,$);
#43=ORGANIZATION($,'None','None');
#44=PERSON_AND_ORGANIZATION(#42,#43);
#45=PERSON_AND_ORGANIZATION_ROLE('creator');
#46=CC_DESIGN_PERSON_AND_ORGANIZATION_ASSIGNMENT(#44,#45,(#41));
#47=PERSON('3','Supplier','Joe',$,$,$);
#48=ORGANIZATION($,'None','None');
#49=PERSON_AND_ORGANIZATION(#47,#48);
#50=PERSON_AND_ORGANIZATION_ROLE('design_supplier');
#51=CC_DESIGN_PERSON_AND_ORGANIZATION_ASSIGNMENT(#49,#50,(#41));
#52=APPROVAL_STATUS('approved');
#53=APPROVAL(#52,'None');
#54=PERSON('4','Approver','Joe',$,$,$);
#55=ORGANIZATION($,'None','None');
#56=PERSON_AND_ORGANIZATION(#54,#55);
#57=APPROVAL_ROLE('approver');
#58=APPROVAL_PERSON_ORGANIZATION(#56,#53,#57);
#59=COORDINATED_UNIVERSAL_TIME_OFFSET(8,$,.EXACT.);
#60=CALENDAR_DATE(1996,29,5);
#61=LOCAL_TIME(12,0,0.0,#59);
#62=DATE_AND_TIME(#60,#61);
#63=APPROVAL_DATE_TIME(#62,#53);
#64=CC_DESIGN_APPROVAL(#53,(#41));
#65=SECURITY_CLASSIFICATION_LEVEL('unclassified');
#66=SECURITY_CLASSIFICATION('security','None',#65);
#67=CC_DESIGN_SECURITY_CLASSIFICATION(#66,(#41));
#68=APPROVAL_STATUS('approved');
#69=APPROVAL(#68,'None');
#70=PERSON('5','Approver','Joe',$,$,$);
#71=ORGANIZATION($,'None','None');
#72=PERSON_AND_ORGANIZATION(#70,#71);
#73=APPROVAL_ROLE('approver');
#74=APPROVAL_PERSON_ORGANIZATION(#72,#69,#73);
#75=COORDINATED_UNIVERSAL_TIME_OFFSET(8,$,.EXACT.);
#76=CALENDAR_DATE(1996,29,5);
#77=LOCAL_TIME(12,0,0.0,#75);
#78=DATE_AND_TIME(#76,#77);
#79=APPROVAL_DATE_TIME(#78,#69);
#80=CC_DESIGN_APPROVAL(#69,(#66));
#81=PERSON('6','Classifier','Joe',$,$,$);
#82=ORGANIZATION($,'None','None');
#83=PERSON_AND_ORGANIZATION(#81,#82);
#84=PERSON_AND_ORGANIZATION_ROLE('classification_officer');
#85=CC_DESIGN_PERSON_AND_ORGANIZATION_ASSIGNMENT(#83,#84,(#66));
#86=COORDINATED_UNIVERSAL_TIME_OFFSET(8,$,.EXACT.);
#87=CALENDAR_DATE(1996,29,5);
#88=LOCAL_TIME(12,0,0.0,#86);
#89=DATE_AND_TIME(#87,#88);
#90=DATE_TIME_ROLE('classification_date');
#91=CC_DESIGN_DATE_AND_TIME_ASSIGNMENT(#89,#90,(#66));
#92=DESIGN_CONTEXT('Design Context',#29,'design');
#93=PRODUCT_DEFINITION('None','None',#41,#92);
#94=PERSON('7','Creator','Joe',$,$,$);
#95=ORGANIZATION($,'None','None');
#96=PERSON_AND_ORGANIZATION(#94,#95);
#97=PERSON_AND_ORGANIZATION_ROLE('creator');
#98=CC_DESIGN_PERSON_AND_ORGANIZATION_ASSIGNMENT(#96,#97,(#93));
#99=COORDINATED_UNIVERSAL_TIME_OFFSET(8,$,.EXACT.);
#100=CALENDAR_DATE(1996,29,5);
#101=LOCAL_TIME(12,0,0.0,#99);
#102=DATE_AND_TIME(#100,#101);
#103=DATE_TIME_ROLE('creation_date');
#104=CC_DESIGN_DATE_AND_TIME_ASSIGNMENT(#102,#103,(#93));
#105=APPROVAL_STATUS('approved');
#106=APPROVAL(#105,'None');
#107=PERSON('8','Approver','Joe',$,$,$);
#108=ORGANIZATION($,'None','None');
#109=PERSON_AND_ORGANIZATION(#107,#108);
#110=APPROVAL_ROLE('approver');
#111=APPROVAL_PERSON_ORGANIZATION(#109,#106,#110);
#112=COORDINATED_UNIVERSAL_TIME_OFFSET(8,$,.EXACT.);
#113=CALENDAR_DATE(1996,29,5);
#114=LOCAL_TIME(12,0,0.0,#112);
#115=DATE_AND_TIME(#113,#114);
#116=APPROVAL_DATE_TIME(#115,#106);
#117=CC_DESIGN_APPROVAL(#106,(#93));
#118=CARTESIAN_POINT('NONE',(0.0,0.0,0.0));
#119=DIRECTION('NONE',(0.0,0.0,1.0));
#120=DIRECTION('NONE',(1.0,0.0,0.0));
#121=AXIS2_PLACEMENT_3D('NONE',#118,#119,#120);
#122=SHAPE_REPRESENTATION('SR1',(#121),#28);
#123=PRODUCT_DEFINITION_SHAPE('PDS1','Test Part',#93);
#124=SHAPE_DEFINITION_REPRESENTATION(#123,#122);
#125=CARTESIAN_POINT('',(19.000000000000011,4.00000000000002,30.0));
#126=DIRECTION('',(1.0,0.0,0.0));
#127=VECTOR('',#126,2.999999999999989);
#128=LINE('',#125,#127);
#129=CARTESIAN_POINT('',(22.0,4.00000000000002,30.0));
#130=TRIMMED_CURVE('AB9',#128,(PARAMETER_VALUE(0.0),#125),(PARAMETER_VALUE(1.0),#129),.T.,.PARAMETER.);
#131=CARTESIAN_POINT('',(17.0,52.00000000000005,30.0));
#132=DIRECTION('',(0.0,1.0,0.0));
#133=VECTOR('',#132,7.999999999999957);
#134=LINE('',#131,#133);
#135=CARTESIAN_POINT('',(17.0,60.000000000000007,30.0));
#136=TRIMMED_CURVE('AB8',#134,(PARAMETER_VALUE(0.0),#131),(PARAMETER_VALUE(1.0),#135),.T.,.PARAMETER.);
#137=CARTESIAN_POINT('',(7.0,52.000000000000007,30.0));
#138=DIRECTION('',(1.0,0.0,0.0));
#139=VECTOR('',#138,10.0);
#140=LINE('',#137,#139);
#141=CARTESIAN_POINT('',(17.0,52.00000000000005,30.0));
#142=TRIMMED_CURVE('AB7',#140,(PARAMETER_VALUE(0.0),#137),(PARAMETER_VALUE(1.0),#141),.T.,.PARAMETER.);
#143=CARTESIAN_POINT('',(7.0,52.000000000000007,30.0));
#144=DIRECTION('',(0.0,1.0,0.0));
#145=VECTOR('',#144,13.999999999999993);
#146=LINE('',#143,#145);
#147=CARTESIAN_POINT('',(7.0,66.0,30.0));
#148=TRIMMED_CURVE('AB6',#146,(PARAMETER_VALUE(0.0),#143),(PARAMETER_VALUE(1.0),#147),.T.,.PARAMETER.);
#149=CARTESIAN_POINT('',(-17.0,52.00000000000005,30.0));
#150=DIRECTION('',(0.0,1.0,0.0));
#151=VECTOR('',#150,7.999999999999957);
#152=LINE('',#149,#151);
#153=CARTESIAN_POINT('',(-17.0,60.000000000000007,30.0));
#154=TRIMMED_CURVE('AB5',#152,(PARAMETER_VALUE(0.0),#149),(PARAMETER_VALUE(1.0),#153),.T.,.PARAMETER.);
#155=CARTESIAN_POINT('',(-7.0,52.000000000000007,30.0));
#156=DIRECTION('',(-1.0,0.0,0.0));
#157=VECTOR('',#156,10.0);
#158=LINE('',#155,#157);
#159=CARTESIAN_POINT('',(-17.0,52.00000000000005,30.0));
#160=TRIMMED_CURVE('AB4',#158,(PARAMETER_VALUE(0.0),#155),(PARAMETER_VALUE(1.0),#159),.T.,.PARAMETER.);
#161=CARTESIAN_POINT('',(22.0,60.0,30.0));
#162=DIRECTION('',(-1.0,0.0,0.0));
#163=VECTOR('',#162,15.0);
#164=LINE('',#161,#163);
#165=CARTESIAN_POINT('',(7.0,60.0,30.0));
#166=TRIMMED_CURVE('AB3',#164,(PARAMETER_VALUE(0.0),#161),(PARAMETER_VALUE(1.0),#165),.T.,.PARAMETER.);
#167=CARTESIAN_POINT('',(-7.0,52.000000000000007,30.0));
#168=DIRECTION('',(0.0,1.0,0.0));
#169=VECTOR('',#168,13.999999999999993);
#170=LINE('',#167,#169);
#171=CARTESIAN_POINT('',(-7.0,66.0,30.0));
#172=TRIMMED_CURVE('AB2',#170,(PARAMETER_VALUE(0.0),#167),(PARAMETER_VALUE(1.0),#171),.T.,.PARAMETER.);
#173=CARTESIAN_POINT('',(-22.0,60.0,30.0));
#174=DIRECTION('',(1.0,0.0,0.0));
#175=VECTOR('',#174,15.0);
#176=LINE('',#173,#175);
#177=CARTESIAN_POINT('',(-7.0,60.0,30.0));
#178=TRIMMED_CURVE('AB1',#176,(PARAMETER_VALUE(0.0),#173),(PARAMETER_VALUE(1.0),#177),.T.,.PARAMETER.);
#179=CARTESIAN_POINT('',(19.000000000000011,9.00000000000002,30.0));
#180=DIRECTION('',(0.0,-1.0,0.0));
#181=VECTOR('',#180,4.999999999999999);
#182=LINE('',#179,#181);
#183=CARTESIAN_POINT('',(19.000000000000011,4.00000000000002,30.0));
#184=TRIMMED_CURVE('AB0',#182,(PARAMETER_VALUE(0.0),#179),(PARAMETER_VALUE(1.0),#183),.T.,.PARAMETER.);
#185=CARTESIAN_POINT('',(22.0,9.00000000000002,30.0));
#186=DIRECTION('',(-1.0,0.0,0.0));
#187=VECTOR('',#186,2.999999999999989);
#188=LINE('',#185,#187);
#189=CARTESIAN_POINT('',(19.000000000000011,9.00000000000002,30.0));
#190=TRIMMED_CURVE('AAF',#188,(PARAMETER_VALUE(0.0),#185),(PARAMETER_VALUE(1.0),#189),.T.,.PARAMETER.);
#191=CARTESIAN_POINT('',(-19.0,4.00000000000002,30.0));
#192=DIRECTION('',(-1.0,0.0,0.0));
#193=VECTOR('',#192,3.0);
#194=LINE('',#191,#193);
#195=CARTESIAN_POINT('',(-22.0,4.00000000000002,30.0));
#196=TRIMMED_CURVE('AAE',#194,(PARAMETER_VALUE(0.0),#191),(PARAMETER_VALUE(1.0),#195),.T.,.PARAMETER.);
#197=CARTESIAN_POINT('',(-19.0,9.00000000000002,30.0));
#198=DIRECTION('',(0.0,-1.0,0.0));
#199=VECTOR('',#198,4.999999999999999);
#200=LINE('',#197,#199);
#201=CARTESIAN_POINT('',(-19.0,4.00000000000002,30.0));
#202=TRIMMED_CURVE('AAD',#200,(PARAMETER_VALUE(0.0),#197),(PARAMETER_VALUE(1.0),#201),.T.,.PARAMETER.);
#203=CARTESIAN_POINT('',(-22.0,9.00000000000002,30.0));
#204=DIRECTION('',(1.0,0.0,0.0));
#205=VECTOR('',#204,3.0);
#206=LINE('',#203,#205);
#207=CARTESIAN_POINT('',(-19.0,9.00000000000002,30.0));
#208=TRIMMED_CURVE('AAC',#206,(PARAMETER_VALUE(0.0),#203),(PARAMETER_VALUE(1.0),#207),.T.,.PARAMETER.);
#209=CARTESIAN_POINT('',(19.000000000000011,48.0,30.0));
#210=DIRECTION('',(1.0,0.0,0.0));
#211=VECTOR('',#210,2.999999999999989);
#212=LINE('',#209,#211);
#213=CARTESIAN_POINT('',(22.0,48.0,30.0));
#214=TRIMMED_CURVE('AAB',#212,(PARAMETER_VALUE(0.0),#209),(PARAMETER_VALUE(1.0),#213),.T.,.PARAMETER.);
#215=CARTESIAN_POINT('',(19.000000000000011,43.0,30.0));
#216=DIRECTION('',(0.0,1.0,0.0));
#217=VECTOR('',#216,5.0);
#218=LINE('',#215,#217);
#219=CARTESIAN_POINT('',(19.000000000000011,48.0,30.0));
#220=TRIMMED_CURVE('AAA',#218,(PARAMETER_VALUE(0.0),#215),(PARAMETER_VALUE(1.0),#219),.T.,.PARAMETER.);
#221=CARTESIAN_POINT('',(22.0,43.0,30.0));
#222=DIRECTION('',(-1.0,0.0,0.0));
#223=VECTOR('',#222,2.999999999999989);
#224=LINE('',#221,#223);
#225=CARTESIAN_POINT('',(19.000000000000011,43.0,30.0));
#226=TRIMMED_CURVE('AA9',#224,(PARAMETER_VALUE(0.0),#221),(PARAMETER_VALUE(1.0),#225),.T.,.PARAMETER.);
#227=CARTESIAN_POINT('',(-19.0,48.0,30.0));
#228=DIRECTION('',(-1.0,0.0,0.0));
#229=VECTOR('',#228,3.0);
#230=LINE('',#227,#229);
#231=CARTESIAN_POINT('',(-22.0,48.0,30.0));
#232=TRIMMED_CURVE('AA8',#230,(PARAMETER_VALUE(0.0),#227),(PARAMETER_VALUE(1.0),#231),.T.,.PARAMETER.);
#233=CARTESIAN_POINT('',(-19.0,43.0,30.0));
#234=DIRECTION('',(0.0,1.0,0.0));
#235=VECTOR('',#234,5.0);
#236=LINE('',#233,#235);
#237=CARTESIAN_POINT('',(-19.0,48.0,30.0));
#238=TRIMMED_CURVE('AA7',#236,(PARAMETER_VALUE(0.0),#233),(PARAMETER_VALUE(1.0),#237),.T.,.PARAMETER.);
#239=CARTESIAN_POINT('',(-22.0,43.0,30.0));
#240=DIRECTION('',(1.0,0.0,0.0));
#241=VECTOR('',#240,3.0);
#242=LINE('',#239,#241);
#243=CARTESIAN_POINT('',(-19.0,43.0,30.0));
#244=TRIMMED_CURVE('AA6',#242,(PARAMETER_VALUE(0.0),#239),(PARAMETER_VALUE(1.0),#243),.T.,.PARAMETER.);
#245=CARTESIAN_POINT('',(16.552709960937499,28.36622721354167,30.0));
#246=DIRECTION('',(0.0,0.0,1.0));
#247=DIRECTION('',(1.0,0.0,0.0));
#248=AXIS2_PLACEMENT_3D('',#245,#246,#247);
#249=CIRCLE('AA5',#248,2.5);
#250=CARTESIAN_POINT('',(-16.482430013020803,28.36622721354167,30.0));
#251=DIRECTION('',(0.0,0.0,1.0));
#252=DIRECTION('',(1.0,0.0,0.0));
#253=AXIS2_PLACEMENT_3D('',#250,#251,#252);
#254=CIRCLE('AA4',#253,2.5);
#255=CARTESIAN_POINT('',(0.035139973958309,28.366227213541677,0.0));
#256=DIRECTION('',(0.0,0.0,1.0));
#257=DIRECTION('',(0.0,-1.0,0.0));
#258=AXIS2_PLACEMENT_3D('',#255,#256,#257);
#259=CYLINDRICAL_SURFACE('',#258,11.0);
#260=CARTESIAN_POINT('',(0.035139973958309,17.366227213541677,29.999999999999996));
#261=VERTEX_POINT('',#260);
#262=CARTESIAN_POINT('',(0.035139973958309,17.366227213541677,0.0));
#263=VERTEX_POINT('',#262);
#264=CARTESIAN_POINT('',(0.035139973958309,17.366227213541677,29.999999999999996));
#265=DIRECTION('',(0.0,0.0,-1.0));
#266=VECTOR('',#265,29.999999999999996);
#267=LINE('',#264,#266);
#268=EDGE_CURVE('',#261,#263,#267,.T.);
#269=ORIENTED_EDGE('',*,*,#268,.F.);
#270=CARTESIAN_POINT('',(0.035139973958307,39.366227213541677,29.999999999999996));
#271=VERTEX_POINT('',#270);
#272=CARTESIAN_POINT('',(0.035139973958309,28.366227213541677,30.0));
#273=DIRECTION('',(0.0,0.0,1.0));
#274=DIRECTION('',(0.0,-1.0,0.0));
#275=AXIS2_PLACEMENT_3D('',#272,#273,#274);
#276=CIRCLE('',#275,11.0);
#277=EDGE_CURVE('',#261,#271,#276,.T.);
#278=ORIENTED_EDGE('',*,*,#277,.T.);
#279=CARTESIAN_POINT('',(0.035139973958307,39.366227213541677,0.0));
#280=VERTEX_POINT('',#279);
#281=CARTESIAN_POINT('',(0.035139973958307,39.366227213541677,29.999999999999996));
#282=DIRECTION('',(0.0,0.0,-1.0));
#283=VECTOR('',#282,29.999999999999996);
#284=LINE('',#281,#283);
#285=EDGE_CURVE('',#271,#280,#284,.T.);
#286=ORIENTED_EDGE('',*,*,#285,.T.);
#287=CARTESIAN_POINT('',(0.035139973958309,28.366227213541677,0.0));
#288=DIRECTION('',(0.0,0.0,-1.0));
#289=DIRECTION('',(0.0,-1.0,0.0));
#290=AXIS2_PLACEMENT_3D('',#287,#288,#289);
#291=CIRCLE('',#290,11.0);
#292=EDGE_CURVE('',#280,#263,#291,.T.);
#293=ORIENTED_EDGE('',*,*,#292,.T.);
#294=EDGE_LOOP('',(#269,#278,#286,#293));
#295=FACE_OUTER_BOUND('',#294,.T.);
#296=ADVANCED_FACE('',(#295),#259,.F.);
#297=CARTESIAN_POINT('',(0.035139973958309,28.366227213541677,0.0));
#298=DIRECTION('',(0.0,0.0,1.0));
#299=DIRECTION('',(0.0,-1.0,0.0));
#300=AXIS2_PLACEMENT_3D('',#297,#298,#299);
#301=CYLINDRICAL_SURFACE('',#300,11.0);
#302=ORIENTED_EDGE('',*,*,#268,.T.);
#303=CARTESIAN_POINT('',(-10.964860026041691,28.366227213541677,0.0));
#304=VERTEX_POINT('',#303);
#305=CARTESIAN_POINT('',(0.035139973958309,28.366227213541677,0.0));
#306=DIRECTION('',(0.0,0.0,-1.0));
#307=DIRECTION('',(0.0,-1.0,0.0));
#308=AXIS2_PLACEMENT_3D('',#305,#306,#307);
#309=CIRCLE('',#308,11.0);
#310=EDGE_CURVE('',#263,#304,#309,.T.);
#311=ORIENTED_EDGE('',*,*,#310,.T.);
#312=CARTESIAN_POINT('',(0.035139973958309,28.366227213541677,0.0));
#313=DIRECTION('',(0.0,0.0,-1.0));
#314=DIRECTION('',(0.0,-1.0,0.0));
#315=AXIS2_PLACEMENT_3D('',#312,#313,#314);
#316=CIRCLE('',#315,11.0);
#317=EDGE_CURVE('',#304,#280,#316,.T.);
#318=ORIENTED_EDGE('',*,*,#317,.T.);
#319=ORIENTED_EDGE('',*,*,#285,.F.);
#320=CARTESIAN_POINT('',(-10.964860026041691,28.366227213541677,30.0));
#321=VERTEX_POINT('',#320);
#322=CARTESIAN_POINT('',(0.035139973958309,28.366227213541677,30.0));
#323=DIRECTION('',(0.0,0.0,1.0));
#324=DIRECTION('',(0.0,-1.0,0.0));
#325=AXIS2_PLACEMENT_3D('',#322,#323,#324);
#326=CIRCLE('',#325,11.0);
#327=EDGE_CURVE('',#271,#321,#326,.T.);
#328=ORIENTED_EDGE('',*,*,#327,.T.);
#329=CARTESIAN_POINT('',(0.035139973958309,28.366227213541677,30.0));
#330=DIRECTION('',(0.0,0.0,1.0));
#331=DIRECTION('',(0.0,-1.0,0.0));
#332=AXIS2_PLACEMENT_3D('',#329,#330,#331);
#333=CIRCLE('',#332,11.0);
#334=EDGE_CURVE('',#321,#261,#333,.T.);
#335=ORIENTED_EDGE('',*,*,#334,.T.);
#336=EDGE_LOOP('',(#302,#311,#318,#319,#328,#335));
#337=FACE_OUTER_BOUND('',#336,.T.);
#338=ADVANCED_FACE('',(#337),#301,.F.);
#339=CARTESIAN_POINT('',(22.0,66.0,0.0));
#340=DIRECTION('',(1.0,0.0,0.0));
#341=DIRECTION('',(0.0,0.0,-1.0));
#342=AXIS2_PLACEMENT_3D('',#339,#340,#341);
#343=PLANE('',#342);
#344=CARTESIAN_POINT('',(22.0,66.0,30.0));
#345=VERTEX_POINT('',#344);
#346=CARTESIAN_POINT('',(22.0,0.0,30.0));
#347=VERTEX_POINT('',#346);
#348=CARTESIAN_POINT('',(22.0,66.0,30.0));
#349=DIRECTION('',(0.0,-1.0,0.0));
#350=VECTOR('',#349,66.0);
#351=LINE('',#348,#350);
#352=EDGE_CURVE('',#345,#347,#351,.T.);
#353=ORIENTED_EDGE('',*,*,#352,.T.);
#354=CARTESIAN_POINT('',(22.0,0.0,0.0));
#355=VERTEX_POINT('',#354);
#356=CARTESIAN_POINT('',(22.0,0.0,0.0));
#357=DIRECTION('',(0.0,0.0,1.0));
#358=VECTOR('',#357,30.0);
#359=LINE('',#356,#358);
#360=EDGE_CURVE('',#355,#347,#359,.T.);
#361=ORIENTED_EDGE('',*,*,#360,.F.);
#362=CARTESIAN_POINT('',(22.0,66.0,0.0));
#363=VERTEX_POINT('',#362);
#364=CARTESIAN_POINT('',(22.0,0.0,0.0));
#365=DIRECTION('',(0.0,1.0,0.0));
#366=VECTOR('',#365,66.0);
#367=LINE('',#364,#366);
#368=EDGE_CURVE('',#355,#363,#367,.T.);
#369=ORIENTED_EDGE('',*,*,#368,.T.);
#370=CARTESIAN_POINT('',(22.0,66.0,0.0));
#371=DIRECTION('',(0.0,0.0,1.0));
#372=VECTOR('',#371,30.0);
#373=LINE('',#370,#372);
#374=EDGE_CURVE('',#363,#345,#373,.T.);
#375=ORIENTED_EDGE('',*,*,#374,.T.);
#376=EDGE_LOOP('',(#353,#361,#369,#375));
#377=FACE_OUTER_BOUND('',#376,.T.);
#378=ADVANCED_FACE('',(#377),#343,.T.);
#379=CARTESIAN_POINT('',(22.0,0.0,0.0));
#380=DIRECTION('',(0.0,-1.0,0.0));
#381=DIRECTION('',(0.0,0.0,-1.0));
#382=AXIS2_PLACEMENT_3D('',#379,#380,#381);
#383=PLANE('',#382);
#384=CARTESIAN_POINT('',(-22.0,0.0,30.0));
#385=VERTEX_POINT('',#384);
#386=CARTESIAN_POINT('',(22.0,0.0,30.0));
#387=DIRECTION('',(-1.0,0.0,0.0));
#388=VECTOR('',#387,44.0);
#389=LINE('',#386,#388);
#390=EDGE_CURVE('',#347,#385,#389,.T.);
#391=ORIENTED_EDGE('',*,*,#390,.T.);
#392=CARTESIAN_POINT('',(-22.0,0.0,0.0));
#393=VERTEX_POINT('',#392);
#394=CARTESIAN_POINT('',(-22.0,0.0,0.0));
#395=DIRECTION('',(0.0,0.0,1.0));
#396=VECTOR('',#395,30.0);
#397=LINE('',#394,#396);
#398=EDGE_CURVE('',#393,#385,#397,.T.);
#399=ORIENTED_EDGE('',*,*,#398,.F.);
#400=CARTESIAN_POINT('',(-22.0,0.0,0.0));
#401=DIRECTION('',(1.0,0.0,0.0));
#402=VECTOR('',#401,44.0);
#403=LINE('',#400,#402);
#404=EDGE_CURVE('',#393,#355,#403,.T.);
#405=ORIENTED_EDGE('',*,*,#404,.T.);
#406=ORIENTED_EDGE('',*,*,#360,.T.);
#407=EDGE_LOOP('',(#391,#399,#405,#406));
#408=FACE_OUTER_BOUND('',#407,.T.);
#409=ADVANCED_FACE('',(#408),#383,.T.);
#410=CARTESIAN_POINT('',(-22.0,0.0,0.0));
#411=DIRECTION('',(-1.0,0.0,0.0));
#412=DIRECTION('',(0.0,0.0,1.0));
#413=AXIS2_PLACEMENT_3D('',#410,#411,#412);
#414=PLANE('',#413);
#415=CARTESIAN_POINT('',(-22.0,66.0,30.0));
#416=VERTEX_POINT('',#415);
#417=CARTESIAN_POINT('',(-22.0,0.0,30.0));
#418=DIRECTION('',(0.0,1.0,0.0));
#419=VECTOR('',#418,66.0);
#420=LINE('',#417,#419);
#421=EDGE_CURVE('',#385,#416,#420,.T.);
#422=ORIENTED_EDGE('',*,*,#421,.T.);
#423=CARTESIAN_POINT('',(-22.0,66.0,0.0));
#424=VERTEX_POINT('',#423);
#425=CARTESIAN_POINT('',(-22.0,66.0,0.0));
#426=DIRECTION('',(0.0,0.0,1.0));
#427=VECTOR('',#426,30.0);
#428=LINE('',#425,#427);
#429=EDGE_CURVE('',#424,#416,#428,.T.);
#430=ORIENTED_EDGE('',*,*,#429,.F.);
#431=CARTESIAN_POINT('',(-22.0,66.0,0.0));
#432=DIRECTION('',(0.0,-1.0,0.0));
#433=VECTOR('',#432,66.0);
#434=LINE('',#431,#433);
#435=EDGE_CURVE('',#424,#393,#434,.T.);
#436=ORIENTED_EDGE('',*,*,#435,.T.);
#437=ORIENTED_EDGE('',*,*,#398,.T.);
#438=EDGE_LOOP('',(#422,#430,#436,#437));
#439=FACE_OUTER_BOUND('',#438,.T.);
#440=ADVANCED_FACE('',(#439),#414,.T.);
#441=CARTESIAN_POINT('',(-22.0,66.0,0.0));
#442=DIRECTION('',(0.0,1.0,0.0));
#443=DIRECTION('',(0.0,0.0,1.0));
#444=AXIS2_PLACEMENT_3D('',#441,#442,#443);
#445=PLANE('',#444);
#446=CARTESIAN_POINT('',(-22.0,66.0,30.0));
#447=DIRECTION('',(1.0,0.0,0.0));
#448=VECTOR('',#447,44.0);
#449=LINE('',#446,#448);
#450=EDGE_CURVE('',#416,#345,#449,.T.);
#451=ORIENTED_EDGE('',*,*,#450,.T.);
#452=ORIENTED_EDGE('',*,*,#374,.F.);
#453=CARTESIAN_POINT('',(22.0,66.0,0.0));
#454=DIRECTION('',(-1.0,0.0,0.0));
#455=VECTOR('',#454,44.0);
#456=LINE('',#453,#455);
#457=EDGE_CURVE('',#363,#424,#456,.T.);
#458=ORIENTED_EDGE('',*,*,#457,.T.);
#459=ORIENTED_EDGE('',*,*,#429,.T.);
#460=EDGE_LOOP('',(#451,#452,#458,#459));
#461=FACE_OUTER_BOUND('',#460,.T.);
#462=ADVANCED_FACE('',(#461),#445,.T.);
#463=CARTESIAN_POINT('',(0.0,33.0,30.0));
#464=DIRECTION('',(0.0,0.0,1.0));
#465=DIRECTION('',(1.0,0.0,0.0));
#466=AXIS2_PLACEMENT_3D('',#463,#464,#465);
#467=PLANE('',#466);
#468=ORIENTED_EDGE('',*,*,#352,.F.);
#469=ORIENTED_EDGE('',*,*,#450,.F.);
#470=ORIENTED_EDGE('',*,*,#421,.F.);
#471=ORIENTED_EDGE('',*,*,#390,.F.);
#472=EDGE_LOOP('',(#468,#469,#470,#471));
#473=FACE_OUTER_BOUND('',#472,.T.);
#474=ORIENTED_EDGE('',*,*,#334,.F.);
#475=ORIENTED_EDGE('',*,*,#327,.F.);
#476=ORIENTED_EDGE('',*,*,#277,.F.);
#477=EDGE_LOOP('',(#474,#475,#476));
#478=FACE_BOUND('',#477,.T.);
#479=ADVANCED_FACE('',(#473,#478),#467,.T.);
#480=CARTESIAN_POINT('',(0.0,33.0,0.0));
#481=DIRECTION('',(0.0,0.0,1.0));
#482=DIRECTION('',(1.0,0.0,0.0));
#483=AXIS2_PLACEMENT_3D('',#480,#481,#482);
#484=PLANE('',#483);
#485=ORIENTED_EDGE('',*,*,#457,.F.);
#486=ORIENTED_EDGE('',*,*,#368,.F.);
#487=ORIENTED_EDGE('',*,*,#404,.F.);
#488=ORIENTED_EDGE('',*,*,#435,.F.);
#489=EDGE_LOOP('',(#485,#486,#487,#488));
#490=FACE_OUTER_BOUND('',#489,.T.);
#491=ORIENTED_EDGE('',*,*,#317,.F.);
#492=ORIENTED_EDGE('',*,*,#310,.F.);
#493=ORIENTED_EDGE('',*,*,#292,.F.);
#494=EDGE_LOOP('',(#491,#492,#493));
#495=FACE_BOUND('',#494,.T.);
#496=ADVANCED_FACE('',(#490,#495),#484,.F.);
#497=CLOSED_SHELL('',(#296,#338,#378,#409,#440,#462,#479,#496));
#498=MANIFOLD_SOLID_BREP('AA3',#497);
#499=CARTESIAN_POINT('',(17.0,52.00000000000005,0.0));
#500=DIRECTION('',(0.0,1.0,0.0));
#501=VECTOR('',#500,7.999999999999957);
#502=LINE('',#499,#501);
#503=CARTESIAN_POINT('',(17.0,60.000000000000007,0.0));
#504=TRIMMED_CURVE('AA2',#502,(PARAMETER_VALUE(0.0),#499),(PARAMETER_VALUE(1.0),#503),.T.,.PARAMETER.);
#505=CARTESIAN_POINT('',(7.0,52.000000000000007,0.0));
#506=DIRECTION('',(1.0,0.0,0.0));
#507=VECTOR('',#506,10.0);
#508=LINE('',#505,#507);
#509=CARTESIAN_POINT('',(17.0,52.00000000000005,0.0));
#510=TRIMMED_CURVE('AA1',#508,(PARAMETER_VALUE(0.0),#505),(PARAMETER_VALUE(1.0),#509),.T.,.PARAMETER.);
#511=CARTESIAN_POINT('',(7.0,52.000000000000007,0.0));
#512=DIRECTION('',(0.0,1.0,0.0));
#513=VECTOR('',#512,13.999999999999993);
#514=LINE('',#511,#513);
#515=CARTESIAN_POINT('',(7.0,66.0,0.0));
#516=TRIMMED_CURVE('AA0',#514,(PARAMETER_VALUE(0.0),#511),(PARAMETER_VALUE(1.0),#515),.T.,.PARAMETER.);
#517=CARTESIAN_POINT('',(-17.0,52.00000000000005,0.0));
#518=DIRECTION('',(0.0,1.0,0.0));
#519=VECTOR('',#518,7.999999999999957);
#520=LINE('',#517,#519);
#521=CARTESIAN_POINT('',(-17.0,60.000000000000007,0.0));
#522=TRIMMED_CURVE('A9F',#520,(PARAMETER_VALUE(0.0),#517),(PARAMETER_VALUE(1.0),#521),.T.,.PARAMETER.);
#523=CARTESIAN_POINT('',(-7.0,52.000000000000007,0.0));
#524=DIRECTION('',(-1.0,0.0,0.0));
#525=VECTOR('',#524,10.0);
#526=LINE('',#523,#525);
#527=CARTESIAN_POINT('',(-17.0,52.00000000000005,0.0));
#528=TRIMMED_CURVE('A9E',#526,(PARAMETER_VALUE(0.0),#523),(PARAMETER_VALUE(1.0),#527),.T.,.PARAMETER.);
#529=CARTESIAN_POINT('',(22.0,60.0,0.0));
#530=DIRECTION('',(-1.0,0.0,0.0));
#531=VECTOR('',#530,15.0);
#532=LINE('',#529,#531);
#533=CARTESIAN_POINT('',(7.0,60.0,0.0));
#534=TRIMMED_CURVE('A9D',#532,(PARAMETER_VALUE(0.0),#529),(PARAMETER_VALUE(1.0),#533),.T.,.PARAMETER.);
#535=CARTESIAN_POINT('',(-7.0,52.000000000000007,0.0));
#536=DIRECTION('',(0.0,1.0,0.0));
#537=VECTOR('',#536,13.999999999999993);
#538=LINE('',#535,#537);
#539=CARTESIAN_POINT('',(-7.0,66.0,0.0));
#540=TRIMMED_CURVE('A9C',#538,(PARAMETER_VALUE(0.0),#535),(PARAMETER_VALUE(1.0),#539),.T.,.PARAMETER.);
#541=CARTESIAN_POINT('',(-22.0,60.0,0.0));
#542=DIRECTION('',(1.0,0.0,0.0));
#543=VECTOR('',#542,15.0);
#544=LINE('',#541,#543);
#545=CARTESIAN_POINT('',(-7.0,60.0,0.0));
#546=TRIMMED_CURVE('A9B',#544,(PARAMETER_VALUE(0.0),#541),(PARAMETER_VALUE(1.0),#545),.T.,.PARAMETER.);
#547=CARTESIAN_POINT('',(19.000000000000011,4.00000000000002,0.0));
#548=DIRECTION('',(1.0,0.0,0.0));
#549=VECTOR('',#548,2.999999999999989);
#550=LINE('',#547,#549);
#551=CARTESIAN_POINT('',(22.0,4.00000000000002,0.0));
#552=TRIMMED_CURVE('A9A',#550,(PARAMETER_VALUE(0.0),#547),(PARAMETER_VALUE(1.0),#551),.T.,.PARAMETER.);
#553=CARTESIAN_POINT('',(19.000000000000011,9.00000000000002,0.0));
#554=DIRECTION('',(0.0,-1.0,0.0));
#555=VECTOR('',#554,4.999999999999999);
#556=LINE('',#553,#555);
#557=CARTESIAN_POINT('',(19.000000000000011,4.00000000000002,0.0));
#558=TRIMMED_CURVE('A99',#556,(PARAMETER_VALUE(0.0),#553),(PARAMETER_VALUE(1.0),#557),.T.,.PARAMETER.);
#559=CARTESIAN_POINT('',(22.0,9.00000000000002,0.0));
#560=DIRECTION('',(-1.0,0.0,0.0));
#561=VECTOR('',#560,2.999999999999989);
#562=LINE('',#559,#561);
#563=CARTESIAN_POINT('',(19.000000000000011,9.00000000000002,0.0));
#564=TRIMMED_CURVE('A98',#562,(PARAMETER_VALUE(0.0),#559),(PARAMETER_VALUE(1.0),#563),.T.,.PARAMETER.);
#565=CARTESIAN_POINT('',(-19.0,4.00000000000002,0.0));
#566=DIRECTION('',(-1.0,0.0,0.0));
#567=VECTOR('',#566,3.0);
#568=LINE('',#565,#567);
#569=CARTESIAN_POINT('',(-22.0,4.00000000000002,0.0));
#570=TRIMMED_CURVE('A97',#568,(PARAMETER_VALUE(0.0),#565),(PARAMETER_VALUE(1.0),#569),.T.,.PARAMETER.);
#571=CARTESIAN_POINT('',(-19.0,9.00000000000002,0.0));
#572=DIRECTION('',(0.0,-1.0,0.0));
#573=VECTOR('',#572,4.999999999999999);
#574=LINE('',#571,#573);
#575=CARTESIAN_POINT('',(-19.0,4.00000000000002,0.0));
#576=TRIMMED_CURVE('A96',#574,(PARAMETER_VALUE(0.0),#571),(PARAMETER_VALUE(1.0),#575),.T.,.PARAMETER.);
#577=CARTESIAN_POINT('',(-22.0,9.00000000000002,0.0));
#578=DIRECTION('',(1.0,0.0,0.0));
#579=VECTOR('',#578,3.0);
#580=LINE('',#577,#579);
#581=CARTESIAN_POINT('',(-19.0,9.00000000000002,0.0));
#582=TRIMMED_CURVE('A95',#580,(PARAMETER_VALUE(0.0),#577),(PARAMETER_VALUE(1.0),#581),.T.,.PARAMETER.);
#583=CARTESIAN_POINT('',(19.000000000000011,48.0,0.0));
#584=DIRECTION('',(1.0,0.0,0.0));
#585=VECTOR('',#584,2.999999999999989);
#586=LINE('',#583,#585);
#587=CARTESIAN_POINT('',(22.0,48.0,0.0));
#588=TRIMMED_CURVE('A94',#586,(PARAMETER_VALUE(0.0),#583),(PARAMETER_VALUE(1.0),#587),.T.,.PARAMETER.);
#589=CARTESIAN_POINT('',(19.000000000000011,43.0,0.0));
#590=DIRECTION('',(0.0,1.0,0.0));
#591=VECTOR('',#590,5.0);
#592=LINE('',#589,#591);
#593=CARTESIAN_POINT('',(19.000000000000011,48.0,0.0));
#594=TRIMMED_CURVE('A93',#592,(PARAMETER_VALUE(0.0),#589),(PARAMETER_VALUE(1.0),#593),.T.,.PARAMETER.);
#595=CARTESIAN_POINT('',(22.0,43.0,0.0));
#596=DIRECTION('',(-1.0,0.0,0.0));
#597=VECTOR('',#596,2.999999999999989);
#598=LINE('',#595,#597);
#599=CARTESIAN_POINT('',(19.000000000000011,43.0,0.0));
#600=TRIMMED_CURVE('A92',#598,(PARAMETER_VALUE(0.0),#595),(PARAMETER_VALUE(1.0),#599),.T.,.PARAMETER.);
#601=CARTESIAN_POINT('',(-19.0,48.0,0.0));
#602=DIRECTION('',(-1.0,0.0,0.0));
#603=VECTOR('',#602,3.0);
#604=LINE('',#601,#603);
#605=CARTESIAN_POINT('',(-22.0,48.0,0.0));
#606=TRIMMED_CURVE('A91',#604,(PARAMETER_VALUE(0.0),#601),(PARAMETER_VALUE(1.0),#605),.T.,.PARAMETER.);
#607=CARTESIAN_POINT('',(-19.0,43.0,0.0));
#608=DIRECTION('',(0.0,1.0,0.0));
#609=VECTOR('',#608,5.0);
#610=LINE('',#607,#609);
#611=CARTESIAN_POINT('',(-19.0,48.0,0.0));
#612=TRIMMED_CURVE('A90',#610,(PARAMETER_VALUE(0.0),#607),(PARAMETER_VALUE(1.0),#611),.T.,.PARAMETER.);
#613=CARTESIAN_POINT('',(-22.0,43.0,0.0));
#614=DIRECTION('',(1.0,0.0,0.0));
#615=VECTOR('',#614,3.0);
#616=LINE('',#613,#615);
#617=CARTESIAN_POINT('',(-19.0,43.0,0.0));
#618=TRIMMED_CURVE('A8F',#616,(PARAMETER_VALUE(0.0),#613),(PARAMETER_VALUE(1.0),#617),.T.,.PARAMETER.);
#619=CARTESIAN_POINT('',(16.552709960937499,28.36622721354167,0.0));
#620=DIRECTION('',(0.0,0.0,1.0));
#621=DIRECTION('',(1.0,0.0,0.0));
#622=AXIS2_PLACEMENT_3D('',#619,#620,#621);
#623=CIRCLE('A8E',#622,2.5);
#624=CARTESIAN_POINT('',(-16.482430013020803,28.36622721354167,0.0));
#625=DIRECTION('',(0.0,0.0,1.0));
#626=DIRECTION('',(1.0,0.0,0.0));
#627=AXIS2_PLACEMENT_3D('',#624,#625,#626);
#628=CIRCLE('A8D',#627,2.5);
#629=ADVANCED_BREP_SHAPE_REPRESENTATION('ABSR1',(#498),#28);
#630=SHAPE_REPRESENTATION_RELATIONSHIP('SRRPL1','',#629,#122);
#631=GEOMETRIC_CURVE_SET('GCS1',(#130,#136,#142,#148,#154,#160,#166,#172,#178,#184,#190,#196,#202,#208,#214,#220,#226,#232,#238,#244,#249,#254,#504,#510,#516,#522,#528,#534,#540,#546,#552,#558,#564,#570,#576,#582,#588,#594,#600,#606,#612,#618,#623,#628));
#632=GEOMETRICALLY_BOUNDED_WIREFRAME_SHAPE_REPRESENTATION('GBWSR1',(#631),#28);
#633=SHAPE_REPRESENTATION_RELATIONSHIP('SRRPL2','',#632,#122);
ENDSEC;
END-ISO-10303-21;
