ISO-10303-21;
HEADER;
/****************************************************************
 * Generated by software with PDElib inside                    *
 * PDElib Version v51a, created Fri 09/10/2010                  *
 * ITI Transcendata (http://www.transcendata.com/)              *
 ****************************************************************/
FILE_DESCRIPTION((''),'2;1');
FILE_NAME('3d_8LT7S2M.stp','2012-10-02T14:12:57',(''),(''),'Mechanical Desktop 2011','Mechanical Desktop 2011',', , ');
FILE_SCHEMA(('CONFIG_CONTROL_DESIGN'));
ENDSEC;
DATA;
#10=(NAMED_UNIT(*)PLANE_ANGLE_UNIT()SI_UNIT($,.RADIAN.));
#11=DIMENSIONAL_EXPONENTS(0.0,0.0,0.0,0.0,0.0,0.0,0.0);
#12=PLANE_ANGLE_MEASURE_WITH_UNIT(PLANE_ANGLE_MEASURE(0.0174532925),#10);
#16=(CONVERSION_BASED_UNIT('DEGREE',#12)NAMED_UNIT(#11)PLANE_ANGLE_UNIT());
#20=(NAMED_UNIT(*)SI_UNIT($,.STERADIAN.)SOLID_ANGLE_UNIT());
#24=(LENGTH_UNIT()NAMED_UNIT(*)SI_UNIT(.MILLI.,.METRE.));
#26=UNCERTAINTY_MEASURE_WITH_UNIT(LENGTH_MEASURE(0.000001),#24,'DISTANCE_ACCURACY_VALUE','');
#28=(GEOMETRIC_REPRESENTATION_CONTEXT(3)GLOBAL_UNCERTAINTY_ASSIGNED_CONTEXT((#26))GLOBAL_UNIT_ASSIGNED_CONTEXT((#16,#20,#24))REPRESENTATION_CONTEXT('','3D'));
#29=APPLICATION_CONTEXT('CONFIGURATION CONTROLLED 3D DESIGNS OF MECHANICAL PARTS AND ASSEMBLIES');
#30=APPLICATION_PROTOCOL_DEFINITION('INTERNATIONAL STANDARD','config_control_design',1995,#29);
#31=MECHANICAL_CONTEXT('3D Mechanical Parts',#29,'mechanical');
#32=PRODUCT('Product','Product',' ',(#31));
#33=PRODUCT_RELATED_PRODUCT_CATEGORY('detail',$,(#32));
#34=PRODUCT_CATEGORY('part',$);
#35=PRODUCT_CATEGORY_RELATIONSHIP('None','None',#34,#33);
#36=PERSON('1','Design','Joe',$,$,$);
#37=ORGANIZATION($,'None','None');
#38=PERSON_AND_ORGANIZATION(#36,#37);
#39=PERSON_AND_ORGANIZATION_ROLE('design_owner');
#40=CC_DESIGN_PERSON_AND_ORGANIZATION_ASSIGNMENT(#38,#39,(#32));
#41=PRODUCT_DEFINITION_FORMATION_WITH_SPECIFIED_SOURCE('None','None',#32,.BOUGHT.);
#42=PERSON('2','Creator','Joe',$,$,$);
#43=ORGANIZATION($,'None','None');
#44=PERSON_AND_ORGANIZATION(#42,#43);
#45=PERSON_AND_ORGANIZATION_ROLE('creator');
#46=CC_DESIGN_PERSON_AND_ORGANIZATION_ASSIGNMENT(#44,#45,(#41));
#47=PERSON('3','Supplier','Joe',$,$,$);
#48=ORGANIZATION($,'None','None');
#49=PERSON_AND_ORGANIZATION(#47,#48);
#50=PERSON_AND_ORGANIZATION_ROLE('design_supplier');
#51=CC_DESIGN_PERSON_AND_ORGANIZATION_ASSIGNMENT(#49,#50,(#41));
#52=APPROVAL_STATUS('approved');
#53=APPROVAL(#52,'None');
#54=PERSON('4','Approver','Joe',$,$,$);
#55=ORGANIZATION($,'None','None');
#56=PERSON_AND_ORGANIZATION(#54,#55);
#57=APPROVAL_ROLE('approver');
#58=APPROVAL_PERSON_ORGANIZATION(#56,#53,#57);
#59=COORDINATED_UNIVERSAL_TIME_OFFSET(8,$,.EXACT.);
#60=CALENDAR_DATE(1996,29,5);
#61=LOCAL_TIME(12,0,0.0,#59);
#62=DATE_AND_TIME(#60,#61);
#63=APPROVAL_DATE_TIME(#62,#53);
#64=CC_DESIGN_APPROVAL(#53,(#41));
#65=SECURITY_CLASSIFICATION_LEVEL('unclassified');
#66=SECURITY_CLASSIFICATION('security','None',#65);
#67=CC_DESIGN_SECURITY_CLASSIFICATION(#66,(#41));
#68=APPROVAL_STATUS('approved');
#69=APPROVAL(#68,'None');
#70=PERSON('5','Approver','Joe',$,$,$);
#71=ORGANIZATION($,'None','None');
#72=PERSON_AND_ORGANIZATION(#70,#71);
#73=APPROVAL_ROLE('approver');
#74=APPROVAL_PERSON_ORGANIZATION(#72,#69,#73);
#75=COORDINATED_UNIVERSAL_TIME_OFFSET(8,$,.EXACT.);
#76=CALENDAR_DATE(1996,29,5);
#77=LOCAL_TIME(12,0,0.0,#75);
#78=DATE_AND_TIME(#76,#77);
#79=APPROVAL_DATE_TIME(#78,#69);
#80=CC_DESIGN_APPROVAL(#69,(#66));
#81=PERSON('6','Classifier','Joe',$,$,$);
#82=ORGANIZATION($,'None','None');
#83=PERSON_AND_ORGANIZATION(#81,#82);
#84=PERSON_AND_ORGANIZATION_ROLE('classification_officer');
#85=CC_DESIGN_PERSON_AND_ORGANIZATION_ASSIGNMENT(#83,#84,(#66));
#86=COORDINATED_UNIVERSAL_TIME_OFFSET(8,$,.EXACT.);
#87=CALENDAR_DATE(1996,29,5);
#88=LOCAL_TIME(12,0,0.0,#86);
#89=DATE_AND_TIME(#87,#88);
#90=DATE_TIME_ROLE('classification_date');
#91=CC_DESIGN_DATE_AND_TIME_ASSIGNMENT(#89,#90,(#66));
#92=DESIGN_CONTEXT('Design Context',#29,'design');
#93=PRODUCT_DEFINITION('None','None',#41,#92);
#94=PERSON('7','Creator','Joe',$,$,$);
#95=ORGANIZATION($,'None','None');
#96=PERSON_AND_ORGANIZATION(#94,#95);
#97=PERSON_AND_ORGANIZATION_ROLE('creator');
#98=CC_DESIGN_PERSON_AND_ORGANIZATION_ASSIGNMENT(#96,#97,(#93));
#99=COORDINATED_UNIVERSAL_TIME_OFFSET(8,$,.EXACT.);
#100=CALENDAR_DATE(1996,29,5);
#101=LOCAL_TIME(12,0,0.0,#99);
#102=DATE_AND_TIME(#100,#101);
#103=DATE_TIME_ROLE('creation_date');
#104=CC_DESIGN_DATE_AND_TIME_ASSIGNMENT(#102,#103,(#93));
#105=APPROVAL_STATUS('approved');
#106=APPROVAL(#105,'None');
#107=PERSON('8','Approver','Joe',$,$,$);
#108=ORGANIZATION($,'None','None');
#109=PERSON_AND_ORGANIZATION(#107,#108);
#110=APPROVAL_ROLE('approver');
#111=APPROVAL_PERSON_ORGANIZATION(#109,#106,#110);
#112=COORDINATED_UNIVERSAL_TIME_OFFSET(8,$,.EXACT.);
#113=CALENDAR_DATE(1996,29,5);
#114=LOCAL_TIME(12,0,0.0,#112);
#115=DATE_AND_TIME(#113,#114);
#116=APPROVAL_DATE_TIME(#115,#106);
#117=CC_DESIGN_APPROVAL(#106,(#93));
#118=CARTESIAN_POINT('NONE',(0.0,0.0,0.0));
#119=DIRECTION('NONE',(0.0,0.0,1.0));
#120=DIRECTION('NONE',(1.0,0.0,0.0));
#121=AXIS2_PLACEMENT_3D('NONE',#118,#119,#120);
#122=SHAPE_REPRESENTATION('SR1',(#121),#28);
#123=PRODUCT_DEFINITION_SHAPE('PDS1','Test Part',#93);
#124=SHAPE_DEFINITION_REPRESENTATION(#123,#122);
#125=CARTESIAN_POINT('',(0.0,0.0,0.999766710069451));
#126=DIRECTION('',(0.0,6.123032E-017,1.0));
#127=DIRECTION('',(-1.0,0.0,0.0));
#128=AXIS2_PLACEMENT_3D('',#125,#126,#127);
#129=CONICAL_SURFACE('',#128,33.24965006510412,14.045534173133664);
#130=CARTESIAN_POINT('',(-33.499763997395796,0.0,1.9995334201389));
#131=VERTEX_POINT('',#130);
#132=CARTESIAN_POINT('',(-32.999536132812452,0.0,0.0));
#133=VERTEX_POINT('',#132);
#134=CARTESIAN_POINT('',(-33.499763997395796,6.121603E-017,1.999533420138901));
#135=DIRECTION('',(0.242692933747772,-5.939972E-017,-0.970103159415997));
#136=VECTOR('',#135,2.061155456232737);
#137=LINE('',#134,#136);
#138=EDGE_CURVE('',#131,#133,#137,.T.);
#139=ORIENTED_EDGE('',*,*,#138,.F.);
#140=CARTESIAN_POINT('',(33.499763997395796,4.163618E-015,1.999533420138901));
#141=VERTEX_POINT('',#140);
#142=CARTESIAN_POINT('',(0.0,0.0,1.9995334201389));
#143=DIRECTION('',(0.0,0.0,1.0));
#144=DIRECTION('',(-1.0,0.0,0.0));
#145=AXIS2_PLACEMENT_3D('',#142,#143,#144);
#146=CIRCLE('',#145,33.499763997395796);
#147=EDGE_CURVE('',#141,#131,#146,.T.);
#148=ORIENTED_EDGE('',*,*,#147,.F.);
#149=CARTESIAN_POINT('',(32.999536132812445,3.979928E-015,1.110223E-015));
#150=VERTEX_POINT('',#149);
#151=CARTESIAN_POINT('',(33.499763997395796,4.163618E-015,1.999533420138901));
#152=DIRECTION('',(-0.242692933747772,-8.912006E-017,-0.970103159415997));
#153=VECTOR('',#152,2.061155456232738);
#154=LINE('',#151,#153);
#155=EDGE_CURVE('',#141,#150,#154,.T.);
#156=ORIENTED_EDGE('',*,*,#155,.T.);
#157=CARTESIAN_POINT('',(0.0,0.0,0.0));
#158=DIRECTION('',(0.0,0.0,1.0));
#159=DIRECTION('',(-1.0,0.0,0.0));
#160=AXIS2_PLACEMENT_3D('',#157,#158,#159);
#161=CIRCLE('',#160,32.999536132812452);
#162=EDGE_CURVE('',#150,#133,#161,.T.);
#163=ORIENTED_EDGE('',*,*,#162,.T.);
#164=EDGE_LOOP('',(#139,#148,#156,#163));
#165=FACE_OUTER_BOUND('',#164,.T.);
#166=ADVANCED_FACE('',(#165),#129,.T.);
#167=CARTESIAN_POINT('',(0.0,4.440892E-015,74.368751188329909));
#168=DIRECTION('',(0.0,6.123032E-017,1.0));
#169=DIRECTION('',(-1.0,0.0,0.0));
#170=AXIS2_PLACEMENT_3D('',#167,#168,#169);
#171=CONICAL_SURFACE('',#170,0.00073208279077,89.349964346713932);
#172=CARTESIAN_POINT('',(-0.001464165581538,4.440892E-015,74.368759494357661));
#173=VERTEX_POINT('',#172);
#174=CARTESIAN_POINT('',(-2.220446E-015,4.440892E-015,74.368742882302186));
#175=VERTEX_POINT('',#174);
#176=CARTESIAN_POINT('',(-0.001464165581538,4.440893E-015,74.368759494357647));
#177=DIRECTION('',(0.999935643200776,-6.946591E-019,-0.011345019023779));
#178=VECTOR('',#177,0.001464259816611);
#179=LINE('',#176,#178);
#180=EDGE_CURVE('',#173,#175,#179,.T.);
#181=ORIENTED_EDGE('',*,*,#180,.F.);
#182=CARTESIAN_POINT('',(0.001464165581538,4.446842E-015,74.368759494357661));
#183=VERTEX_POINT('',#182);
#184=CARTESIAN_POINT('',(0.0,4.440892E-015,74.368759494357661));
#185=DIRECTION('',(0.0,0.0,1.0));
#186=DIRECTION('',(-1.0,0.0,0.0));
#187=AXIS2_PLACEMENT_3D('',#184,#185,#186);
#188=CIRCLE('',#187,0.001464165581538);
#189=EDGE_CURVE('',#173,#183,#188,.T.);
#190=ORIENTED_EDGE('',*,*,#189,.T.);
#191=CARTESIAN_POINT('',(0.001464165581538,4.441072E-015,74.368759494357647));
#192=DIRECTION('',(-0.999935643200776,-1.231474E-016,-0.011345019023761));
#193=VECTOR('',#192,0.001464259816613);
#194=LINE('',#191,#193);
#195=EDGE_CURVE('',#183,#175,#194,.T.);
#196=ORIENTED_EDGE('',*,*,#195,.T.);
#197=EDGE_LOOP('',(#181,#190,#196));
#198=FACE_OUTER_BOUND('',#197,.T.);
#199=ADVANCED_FACE('',(#198),#171,.F.);
#200=CARTESIAN_POINT('',(0.0,4.440892E-015,74.274514600965716));
#201=DIRECTION('',(0.0,-6.123032E-017,-1.0));
#202=DIRECTION('',(-1.0,0.0,0.0));
#203=AXIS2_PLACEMENT_3D('',#200,#201,#202);
#204=CONICAL_SURFACE('',#203,8.308154593573631,89.349969401102243);
#205=CARTESIAN_POINT('',(-16.614845021565724,4.440892E-015,74.180269707573771));
#206=VERTEX_POINT('',#205);
#207=CARTESIAN_POINT('',(-0.001464165581538,4.446663E-015,74.368759494357661));
#208=DIRECTION('',(-0.999935644201595,-6.946537E-019,-0.011344930812519));
#209=VECTOR('',#208,16.614450092184928);
#210=LINE('',#207,#209);
#211=EDGE_CURVE('',#173,#206,#210,.T.);
#212=ORIENTED_EDGE('',*,*,#211,.F.);
#213=CARTESIAN_POINT('',(0.0,4.440892E-015,74.368759494357661));
#214=DIRECTION('',(0.0,0.0,1.0));
#215=DIRECTION('',(-1.0,0.0,0.0));
#216=AXIS2_PLACEMENT_3D('',#213,#214,#215);
#217=CIRCLE('',#216,0.001464165581538);
#218=EDGE_CURVE('',#183,#173,#217,.T.);
#219=ORIENTED_EDGE('',*,*,#218,.F.);
#220=CARTESIAN_POINT('',(16.614845021565721,6.492869E-015,74.180269707573771));
#221=VERTEX_POINT('',#220);
#222=CARTESIAN_POINT('',(0.001464165581538,4.446842E-015,74.368759494357661));
#223=DIRECTION('',(0.999935644201595,1.217581E-016,-0.011344930812519));
#224=VECTOR('',#223,16.614450092184924);
#225=LINE('',#222,#224);
#226=EDGE_CURVE('',#183,#221,#225,.T.);
#227=ORIENTED_EDGE('',*,*,#226,.T.);
#228=CARTESIAN_POINT('',(0.0,4.440892E-015,74.180269707573771));
#229=DIRECTION('',(0.0,0.0,1.0));
#230=DIRECTION('',(-1.0,0.0,0.0));
#231=AXIS2_PLACEMENT_3D('',#228,#229,#230);
#232=CIRCLE('',#231,16.614845021565724);
#233=EDGE_CURVE('',#221,#206,#232,.T.);
#234=ORIENTED_EDGE('',*,*,#233,.T.);
#235=EDGE_LOOP('',(#212,#219,#227,#234));
#236=FACE_OUTER_BOUND('',#235,.T.);
#237=ADVANCED_FACE('',(#236),#204,.T.);
#238=CARTESIAN_POINT('',(0.0,4.440892E-015,73.897535027397979));
#239=DIRECTION('',(0.0,-6.123032E-017,-1.0));
#240=DIRECTION('',(-1.0,0.0,0.0));
#241=AXIS2_PLACEMENT_3D('',#238,#239,#240);
#242=CONICAL_SURFACE('',#241,24.918467161390481,88.049857332776213);
#243=CARTESIAN_POINT('',(-33.222089301215249,4.440892E-015,73.614800347222172));
#244=VERTEX_POINT('',#243);
#245=CARTESIAN_POINT('',(-16.614845021565724,4.458204E-015,74.180269707573771));
#246=DIRECTION('',(-0.999420817300037,-2.083658E-018,-0.034029839072894));
#247=VECTOR('',#246,16.616868482402101);
#248=LINE('',#245,#247);
#249=EDGE_CURVE('',#206,#244,#248,.T.);
#250=ORIENTED_EDGE('',*,*,#249,.F.);
#251=ORIENTED_EDGE('',*,*,#233,.F.);
#252=CARTESIAN_POINT('',(33.222089301215249,8.539139E-015,73.614800347222172));
#253=VERTEX_POINT('',#252);
#254=CARTESIAN_POINT('',(16.614845021565721,6.492869E-015,74.180269707573771));
#255=DIRECTION('',(0.999420817300037,1.203061E-016,-0.034029839072894));
#256=VECTOR('',#255,16.616868482402104);
#257=LINE('',#254,#256);
#258=EDGE_CURVE('',#221,#253,#257,.T.);
#259=ORIENTED_EDGE('',*,*,#258,.T.);
#260=CARTESIAN_POINT('',(0.0,4.440892E-015,73.614800347222172));
#261=DIRECTION('',(0.0,0.0,1.0));
#262=DIRECTION('',(-1.0,0.0,0.0));
#263=AXIS2_PLACEMENT_3D('',#260,#261,#262);
#264=CIRCLE('',#263,33.222089301215249);
#265=EDGE_CURVE('',#253,#244,#264,.T.);
#266=ORIENTED_EDGE('',*,*,#265,.T.);
#267=EDGE_LOOP('',(#250,#251,#259,#266));
#268=FACE_OUTER_BOUND('',#267,.T.);
#269=ADVANCED_FACE('',(#268),#242,.T.);
#270=CARTESIAN_POINT('',(0.0,4.440892E-015,73.127319335937457));
#271=DIRECTION('',(0.0,-6.123032E-017,-1.0));
#272=DIRECTION('',(-1.0,0.0,0.0));
#273=AXIS2_PLACEMENT_3D('',#270,#271,#272);
#274=CONICAL_SURFACE('',#273,33.610868326822882,38.573288676960019);
#275=CARTESIAN_POINT('',(-33.999647352430515,4.440892E-015,72.639838324652743));
#276=VERTEX_POINT('',#275);
#277=CARTESIAN_POINT('',(-33.222089301215249,4.470741E-015,73.614800347222172));
#278=DIRECTION('',(-0.623515183662623,-4.787055E-017,-0.781811240480825));
#279=VECTOR('',#278,1.247055519398536);
#280=LINE('',#277,#279);
#281=EDGE_CURVE('',#244,#276,#280,.T.);
#282=ORIENTED_EDGE('',*,*,#281,.F.);
#283=ORIENTED_EDGE('',*,*,#265,.F.);
#284=CARTESIAN_POINT('',(33.999647352430515,8.960880E-015,72.639838324652743));
#285=VERTEX_POINT('',#284);
#286=CARTESIAN_POINT('',(33.222089301215249,8.539139E-015,73.614800347222172));
#287=DIRECTION('',(0.623515183662623,2.848551E-017,-0.781811240480825));
#288=VECTOR('',#287,1.247055519398536);
#289=LINE('',#286,#288);
#290=EDGE_CURVE('',#253,#285,#289,.T.);
#291=ORIENTED_EDGE('',*,*,#290,.T.);
#292=CARTESIAN_POINT('',(0.0,4.440892E-015,72.639838324652743));
#293=DIRECTION('',(0.0,0.0,1.0));
#294=DIRECTION('',(-1.0,0.0,0.0));
#295=AXIS2_PLACEMENT_3D('',#292,#293,#294);
#296=CIRCLE('',#295,33.999647352430515);
#297=EDGE_CURVE('',#285,#276,#296,.T.);
#298=ORIENTED_EDGE('',*,*,#297,.T.);
#299=EDGE_LOOP('',(#282,#283,#291,#298));
#300=FACE_OUTER_BOUND('',#299,.T.);
#301=ADVANCED_FACE('',(#300),#274,.T.);
#302=CARTESIAN_POINT('',(0.0,4.440892E-015,66.819694010416669));
#303=DIRECTION('',(0.0,6.123032E-017,1.0));
#304=DIRECTION('',(-1.0,0.0,0.0));
#305=AXIS2_PLACEMENT_3D('',#302,#303,#304);
#306=CYLINDRICAL_SURFACE('',#305,33.999647352430515);
#307=CARTESIAN_POINT('',(-33.999647352430515,3.552714E-015,60.99954969618058));
#308=VERTEX_POINT('',#307);
#309=CARTESIAN_POINT('',(-33.999647352430515,4.797261E-015,72.639838324652743));
#310=DIRECTION('',(0.0,0.0,-1.0));
#311=VECTOR('',#310,11.640288628472163);
#312=LINE('',#309,#311);
#313=EDGE_CURVE('',#276,#308,#312,.T.);
#314=ORIENTED_EDGE('',*,*,#313,.F.);
#315=ORIENTED_EDGE('',*,*,#297,.F.);
#316=CARTESIAN_POINT('',(33.999647352430515,7.808177E-015,60.99954969618058));
#317=VERTEX_POINT('',#316);
#318=CARTESIAN_POINT('',(33.999647352430515,8.960880E-015,72.639838324652743));
#319=DIRECTION('',(0.0,0.0,-1.0));
#320=VECTOR('',#319,11.640288628472163);
#321=LINE('',#318,#320);
#322=EDGE_CURVE('',#285,#317,#321,.T.);
#323=ORIENTED_EDGE('',*,*,#322,.T.);
#324=CARTESIAN_POINT('',(0.0,3.552714E-015,60.99954969618058));
#325=DIRECTION('',(0.0,0.0,1.0));
#326=DIRECTION('',(-1.0,0.0,0.0));
#327=AXIS2_PLACEMENT_3D('',#324,#325,#326);
#328=CIRCLE('',#327,33.999647352430515);
#329=EDGE_CURVE('',#317,#308,#328,.T.);
#330=ORIENTED_EDGE('',*,*,#329,.T.);
#331=EDGE_LOOP('',(#314,#315,#323,#330));
#332=FACE_OUTER_BOUND('',#331,.T.);
#333=ADVANCED_FACE('',(#332),#306,.T.);
#334=CARTESIAN_POINT('',(0.0,3.552714E-015,59.499555121527777));
#335=DIRECTION('',(0.0,-6.123032E-017,-1.0));
#336=DIRECTION('',(-1.0,0.0,0.0));
#337=AXIS2_PLACEMENT_3D('',#334,#335,#336);
#338=CONICAL_SURFACE('',#337,34.124704318576335,4.765819781979703);
#339=CARTESIAN_POINT('',(-34.249761284722155,3.552714E-015,57.99956054687496));
#340=VERTEX_POINT('',#339);
#341=CARTESIAN_POINT('',(-33.999647352430515,3.644559E-015,60.99954969618058));
#342=DIRECTION('',(-0.083083363344978,-6.101862E-017,-0.996542600562207));
#343=VECTOR('',#342,3.010397295221653);
#344=LINE('',#341,#343);
#345=EDGE_CURVE('',#308,#340,#344,.T.);
#346=ORIENTED_EDGE('',*,*,#345,.F.);
#347=ORIENTED_EDGE('',*,*,#329,.F.);
#348=CARTESIAN_POINT('',(34.249761284722155,7.685054E-015,57.99956054687496));
#349=VERTEX_POINT('',#348);
#350=CARTESIAN_POINT('',(33.999647352430515,7.808177E-015,60.99954969618058));
#351=DIRECTION('',(0.083083363344978,-5.084418E-017,-0.996542600562207));
#352=VECTOR('',#351,3.010397295221653);
#353=LINE('',#350,#352);
#354=EDGE_CURVE('',#317,#349,#353,.T.);
#355=ORIENTED_EDGE('',*,*,#354,.T.);
#356=CARTESIAN_POINT('',(0.0,3.552714E-015,57.99956054687496));
#357=DIRECTION('',(0.0,0.0,1.0));
#358=DIRECTION('',(-1.0,0.0,0.0));
#359=AXIS2_PLACEMENT_3D('',#356,#357,#358);
#360=CIRCLE('',#359,34.249761284722155);
#361=EDGE_CURVE('',#349,#340,#360,.T.);
#362=ORIENTED_EDGE('',*,*,#361,.T.);
#363=EDGE_LOOP('',(#346,#347,#355,#362));
#364=FACE_OUTER_BOUND('',#363,.T.);
#365=ADVANCED_FACE('',(#364),#338,.T.);
#366=CARTESIAN_POINT('',(0.0,1.776357E-015,29.999546983506931));
#367=DIRECTION('',(0.0,-6.123032E-017,-1.0));
#368=DIRECTION('',(-1.0,0.0,0.0));
#369=AXIS2_PLACEMENT_3D('',#366,#367,#368);
#370=CONICAL_SURFACE('',#369,34.624759928385373,0.767305168502746);
#371=CARTESIAN_POINT('',(-34.999758572048592,0.0,1.9995334201389));
#372=VERTEX_POINT('',#371);
#373=CARTESIAN_POINT('',(-34.249761284722155,3.490807E-015,57.99956054687496));
#374=DIRECTION('',(-0.013391601261871,-6.122483E-017,-0.999910328487331));
#375=VECTOR('',#374,56.005049184213483);
#376=LINE('',#373,#375);
#377=EDGE_CURVE('',#340,#372,#376,.T.);
#378=ORIENTED_EDGE('',*,*,#377,.F.);
#379=ORIENTED_EDGE('',*,*,#361,.F.);
#380=CARTESIAN_POINT('',(34.999758572048592,4.348000E-015,1.999533420138899));
#381=VERTEX_POINT('',#380);
#382=CARTESIAN_POINT('',(34.249761284722155,7.685054E-015,57.99956054687496));
#383=DIRECTION('',(0.013391601261871,-5.958488E-017,-0.999910328487331));
#384=VECTOR('',#383,56.005049184213483);
#385=LINE('',#382,#384);
#386=EDGE_CURVE('',#349,#381,#385,.T.);
#387=ORIENTED_EDGE('',*,*,#386,.T.);
#388=CARTESIAN_POINT('',(0.0,0.0,1.9995334201389));
#389=DIRECTION('',(0.0,0.0,1.0));
#390=DIRECTION('',(-1.0,0.0,0.0));
#391=AXIS2_PLACEMENT_3D('',#388,#389,#390);
#392=CIRCLE('',#391,34.999758572048592);
#393=EDGE_CURVE('',#381,#372,#392,.T.);
#394=ORIENTED_EDGE('',*,*,#393,.T.);
#395=EDGE_LOOP('',(#378,#379,#387,#394));
#396=FACE_OUTER_BOUND('',#395,.T.);
#397=ADVANCED_FACE('',(#396),#370,.T.);
#398=CARTESIAN_POINT('',(-34.249761284722197,0.0,1.9995334201389));
#399=DIRECTION('',(0.0,0.0,-1.0));
#400=DIRECTION('',(0.0,1.0,0.0));
#401=AXIS2_PLACEMENT_3D('',#398,#399,#400);
#402=PLANE('',#401);
#403=CARTESIAN_POINT('',(0.0,0.0,1.9995334201389));
#404=DIRECTION('',(0.0,0.0,1.0));
#405=DIRECTION('',(-1.0,0.0,0.0));
#406=AXIS2_PLACEMENT_3D('',#403,#404,#405);
#407=CIRCLE('',#406,34.999758572048592);
#408=EDGE_CURVE('',#372,#381,#407,.T.);
#409=ORIENTED_EDGE('',*,*,#408,.F.);
#410=ORIENTED_EDGE('',*,*,#393,.F.);
#411=EDGE_LOOP('',(#409,#410));
#412=FACE_OUTER_BOUND('',#411,.T.);
#413=CARTESIAN_POINT('',(0.0,0.0,1.9995334201389));
#414=DIRECTION('',(0.0,0.0,1.0));
#415=DIRECTION('',(-1.0,0.0,0.0));
#416=AXIS2_PLACEMENT_3D('',#413,#414,#415);
#417=CIRCLE('',#416,33.499763997395796);
#418=EDGE_CURVE('',#131,#141,#417,.T.);
#419=ORIENTED_EDGE('',*,*,#418,.T.);
#420=ORIENTED_EDGE('',*,*,#147,.T.);
#421=EDGE_LOOP('',(#419,#420));
#422=FACE_BOUND('',#421,.T.);
#423=ADVANCED_FACE('',(#412,#422),#402,.T.);
#424=CARTESIAN_POINT('',(0.0,1.776357E-015,29.999546983506931));
#425=DIRECTION('',(0.0,-6.123032E-017,-1.0));
#426=DIRECTION('',(-1.0,0.0,0.0));
#427=AXIS2_PLACEMENT_3D('',#424,#425,#426);
#428=CONICAL_SURFACE('',#427,34.624759928385373,0.767305168502746);
#429=ORIENTED_EDGE('',*,*,#377,.T.);
#430=ORIENTED_EDGE('',*,*,#408,.T.);
#431=ORIENTED_EDGE('',*,*,#386,.F.);
#432=CARTESIAN_POINT('',(0.0,3.552714E-015,57.99956054687496));
#433=DIRECTION('',(0.0,0.0,1.0));
#434=DIRECTION('',(-1.0,0.0,0.0));
#435=AXIS2_PLACEMENT_3D('',#432,#433,#434);
#436=CIRCLE('',#435,34.249761284722155);
#437=EDGE_CURVE('',#340,#349,#436,.T.);
#438=ORIENTED_EDGE('',*,*,#437,.F.);
#439=EDGE_LOOP('',(#429,#430,#431,#438));
#440=FACE_OUTER_BOUND('',#439,.T.);
#441=ADVANCED_FACE('',(#440),#428,.T.);
#442=CARTESIAN_POINT('',(0.0,3.552714E-015,59.499555121527777));
#443=DIRECTION('',(0.0,-6.123032E-017,-1.0));
#444=DIRECTION('',(-1.0,0.0,0.0));
#445=AXIS2_PLACEMENT_3D('',#442,#443,#444);
#446=CONICAL_SURFACE('',#445,34.124704318576335,4.765819781979703);
#447=ORIENTED_EDGE('',*,*,#345,.T.);
#448=ORIENTED_EDGE('',*,*,#437,.T.);
#449=ORIENTED_EDGE('',*,*,#354,.F.);
#450=CARTESIAN_POINT('',(0.0,3.552714E-015,60.99954969618058));
#451=DIRECTION('',(0.0,0.0,1.0));
#452=DIRECTION('',(-1.0,0.0,0.0));
#453=AXIS2_PLACEMENT_3D('',#450,#451,#452);
#454=CIRCLE('',#453,33.999647352430515);
#455=EDGE_CURVE('',#308,#317,#454,.T.);
#456=ORIENTED_EDGE('',*,*,#455,.F.);
#457=EDGE_LOOP('',(#447,#448,#449,#456));
#458=FACE_OUTER_BOUND('',#457,.T.);
#459=ADVANCED_FACE('',(#458),#446,.T.);
#460=CARTESIAN_POINT('',(0.0,4.440892E-015,66.819694010416669));
#461=DIRECTION('',(0.0,6.123032E-017,1.0));
#462=DIRECTION('',(-1.0,0.0,0.0));
#463=AXIS2_PLACEMENT_3D('',#460,#461,#462);
#464=CYLINDRICAL_SURFACE('',#463,33.999647352430515);
#465=ORIENTED_EDGE('',*,*,#313,.T.);
#466=ORIENTED_EDGE('',*,*,#455,.T.);
#467=ORIENTED_EDGE('',*,*,#322,.F.);
#468=CARTESIAN_POINT('',(0.0,4.440892E-015,72.639838324652743));
#469=DIRECTION('',(0.0,0.0,1.0));
#470=DIRECTION('',(-1.0,0.0,0.0));
#471=AXIS2_PLACEMENT_3D('',#468,#469,#470);
#472=CIRCLE('',#471,33.999647352430515);
#473=EDGE_CURVE('',#276,#285,#472,.T.);
#474=ORIENTED_EDGE('',*,*,#473,.F.);
#475=EDGE_LOOP('',(#465,#466,#467,#474));
#476=FACE_OUTER_BOUND('',#475,.T.);
#477=ADVANCED_FACE('',(#476),#464,.T.);
#478=CARTESIAN_POINT('',(0.0,4.440892E-015,73.127319335937457));
#479=DIRECTION('',(0.0,-6.123032E-017,-1.0));
#480=DIRECTION('',(-1.0,0.0,0.0));
#481=AXIS2_PLACEMENT_3D('',#478,#479,#480);
#482=CONICAL_SURFACE('',#481,33.610868326822882,38.573288676960019);
#483=ORIENTED_EDGE('',*,*,#281,.T.);
#484=ORIENTED_EDGE('',*,*,#473,.T.);
#485=ORIENTED_EDGE('',*,*,#290,.F.);
#486=CARTESIAN_POINT('',(0.0,4.440892E-015,73.614800347222172));
#487=DIRECTION('',(0.0,0.0,1.0));
#488=DIRECTION('',(-1.0,0.0,0.0));
#489=AXIS2_PLACEMENT_3D('',#486,#487,#488);
#490=CIRCLE('',#489,33.222089301215249);
#491=EDGE_CURVE('',#244,#253,#490,.T.);
#492=ORIENTED_EDGE('',*,*,#491,.F.);
#493=EDGE_LOOP('',(#483,#484,#485,#492));
#494=FACE_OUTER_BOUND('',#493,.T.);
#495=ADVANCED_FACE('',(#494),#482,.T.);
#496=CARTESIAN_POINT('',(0.0,4.440892E-015,73.897535027397979));
#497=DIRECTION('',(0.0,-6.123032E-017,-1.0));
#498=DIRECTION('',(-1.0,0.0,0.0));
#499=AXIS2_PLACEMENT_3D('',#496,#497,#498);
#500=CONICAL_SURFACE('',#499,24.918467161390481,88.049857332776213);
#501=ORIENTED_EDGE('',*,*,#249,.T.);
#502=ORIENTED_EDGE('',*,*,#491,.T.);
#503=ORIENTED_EDGE('',*,*,#258,.F.);
#504=CARTESIAN_POINT('',(0.0,4.440892E-015,74.180269707573771));
#505=DIRECTION('',(0.0,0.0,1.0));
#506=DIRECTION('',(-1.0,0.0,0.0));
#507=AXIS2_PLACEMENT_3D('',#504,#505,#506);
#508=CIRCLE('',#507,16.614845021565724);
#509=EDGE_CURVE('',#206,#221,#508,.T.);
#510=ORIENTED_EDGE('',*,*,#509,.F.);
#511=EDGE_LOOP('',(#501,#502,#503,#510));
#512=FACE_OUTER_BOUND('',#511,.T.);
#513=ADVANCED_FACE('',(#512),#500,.T.);
#514=CARTESIAN_POINT('',(0.0,4.440892E-015,74.274514600965716));
#515=DIRECTION('',(0.0,-6.123032E-017,-1.0));
#516=DIRECTION('',(-1.0,0.0,0.0));
#517=AXIS2_PLACEMENT_3D('',#514,#515,#516);
#518=CONICAL_SURFACE('',#517,8.308154593573631,89.349969401102243);
#519=ORIENTED_EDGE('',*,*,#211,.T.);
#520=ORIENTED_EDGE('',*,*,#509,.T.);
#521=ORIENTED_EDGE('',*,*,#226,.F.);
#522=ORIENTED_EDGE('',*,*,#189,.F.);
#523=EDGE_LOOP('',(#519,#520,#521,#522));
#524=FACE_OUTER_BOUND('',#523,.T.);
#525=ADVANCED_FACE('',(#524),#518,.T.);
#526=CARTESIAN_POINT('',(0.0,4.440892E-015,74.368751188329909));
#527=DIRECTION('',(0.0,6.123032E-017,1.0));
#528=DIRECTION('',(-1.0,0.0,0.0));
#529=AXIS2_PLACEMENT_3D('',#526,#527,#528);
#530=CONICAL_SURFACE('',#529,0.00073208279077,89.349964346713932);
#531=ORIENTED_EDGE('',*,*,#180,.T.);
#532=ORIENTED_EDGE('',*,*,#195,.F.);
#533=ORIENTED_EDGE('',*,*,#218,.T.);
#534=EDGE_LOOP('',(#531,#532,#533));
#535=FACE_OUTER_BOUND('',#534,.T.);
#536=ADVANCED_FACE('',(#535),#530,.F.);
#537=CARTESIAN_POINT('',(-16.499768066406226,0.0,0.0));
#538=DIRECTION('',(0.0,0.0,-1.0));
#539=DIRECTION('',(0.0,1.0,0.0));
#540=AXIS2_PLACEMENT_3D('',#537,#538,#539);
#541=PLANE('',#540);
#542=CARTESIAN_POINT('',(0.0,0.0,0.0));
#543=DIRECTION('',(0.0,0.0,1.0));
#544=DIRECTION('',(-1.0,0.0,0.0));
#545=AXIS2_PLACEMENT_3D('',#542,#543,#544);
#546=CIRCLE('',#545,32.999536132812452);
#547=EDGE_CURVE('',#133,#150,#546,.T.);
#548=ORIENTED_EDGE('',*,*,#547,.F.);
#549=ORIENTED_EDGE('',*,*,#162,.F.);
#550=EDGE_LOOP('',(#548,#549));
#551=FACE_OUTER_BOUND('',#550,.T.);
#552=ADVANCED_FACE('',(#551),#541,.T.);
#553=CARTESIAN_POINT('',(0.0,0.0,0.999766710069451));
#554=DIRECTION('',(0.0,6.123032E-017,1.0));
#555=DIRECTION('',(-1.0,0.0,0.0));
#556=AXIS2_PLACEMENT_3D('',#553,#554,#555);
#557=CONICAL_SURFACE('',#556,33.24965006510412,14.045534173133664);
#558=ORIENTED_EDGE('',*,*,#138,.T.);
#559=ORIENTED_EDGE('',*,*,#547,.T.);
#560=ORIENTED_EDGE('',*,*,#155,.F.);
#561=ORIENTED_EDGE('',*,*,#418,.F.);
#562=EDGE_LOOP('',(#558,#559,#560,#561));
#563=FACE_OUTER_BOUND('',#562,.T.);
#564=ADVANCED_FACE('',(#563),#557,.T.);
#565=CLOSED_SHELL('',(#166,#199,#237,#269,#301,#333,#365,#397,#423,#441,#459,#477,#495,#513,#525,#536,#552,#564));
#566=MANIFOLD_SOLID_BREP('88C3',#565);
#567=ADVANCED_BREP_SHAPE_REPRESENTATION('ABSR1',(#566),#28);
#568=SHAPE_REPRESENTATION_RELATIONSHIP('SRRPL1','',#567,#122);
ENDSEC;
END-ISO-10303-21;
