ISO-10303-21;
HEADER;
/****************************************************************
 * Generated by software with PDElib inside                    *
 * PDElib Version v51a, created Fri 09/10/2010                  *
 * ITI Transcendata (http://www.transcendata.com/)              *
 ****************************************************************/
FILE_DESCRIPTION((''),'2;1');
FILE_NAME('3d_8LT7EL3.stp','2012-10-02T14:15:22',(''),(''),'Mechanical Desktop 2011','Mechanical Desktop 2011',', , ');
FILE_SCHEMA(('CONFIG_CONTROL_DESIGN'));
ENDSEC;
DATA;
#10=(NAMED_UNIT(*)PLANE_ANGLE_UNIT()SI_UNIT($,.RADIAN.));
#11=DIMENSIONAL_EXPONENTS(0.0,0.0,0.0,0.0,0.0,0.0,0.0);
#12=PLANE_ANGLE_MEASURE_WITH_UNIT(PLANE_ANGLE_MEASURE(0.0174532925),#10);
#16=(CONVERSION_BASED_UNIT('DEGREE',#12)NAMED_UNIT(#11)PLANE_ANGLE_UNIT());
#20=(NAMED_UNIT(*)SI_UNIT($,.STERADIAN.)SOLID_ANGLE_UNIT());
#24=(LENGTH_UNIT()NAMED_UNIT(*)SI_UNIT(.MILLI.,.METRE.));
#26=UNCERTAINTY_MEASURE_WITH_UNIT(LENGTH_MEASURE(0.000001),#24,'DISTANCE_ACCURACY_VALUE','');
#28=(GEOMETRIC_REPRESENTATION_CONTEXT(3)GLOBAL_UNCERTAINTY_ASSIGNED_CONTEXT((#26))GLOBAL_UNIT_ASSIGNED_CONTEXT((#16,#20,#24))REPRESENTATION_CONTEXT('','3D'));
#29=APPLICATION_CONTEXT('CONFIGURATION CONTROLLED 3D DESIGNS OF MECHANICAL PARTS AND ASSEMBLIES');
#30=APPLICATION_PROTOCOL_DEFINITION('INTERNATIONAL STANDARD','config_control_design',1995,#29);
#31=MECHANICAL_CONTEXT('3D Mechanical Parts',#29,'mechanical');
#32=PRODUCT('Product','Product',' ',(#31));
#33=PRODUCT_RELATED_PRODUCT_CATEGORY('detail',$,(#32));
#34=PRODUCT_CATEGORY('part',$);
#35=PRODUCT_CATEGORY_RELATIONSHIP('None','None',#34,#33);
#36=PERSON('1','Design','Joe',$,$,$);
#37=ORGANIZATION($,'None','None');
#38=PERSON_AND_ORGANIZATION(#36,#37);
#39=PERSON_AND_ORGANIZATION_ROLE('design_owner');
#40=CC_DESIGN_PERSON_AND_ORGANIZATION_ASSIGNMENT(#38,#39,(#32));
#41=PRODUCT_DEFINITION_FORMATION_WITH_SPECIFIED_SOURCE('None','None',#32,.BOUGHT.);
#42=PERSON('2','Creator','Joe',$,$,$);
#43=ORGANIZATION($,'None','None');
#44=PERSON_AND_ORGANIZATION(#42,#43);
#45=PERSON_AND_ORGANIZATION_ROLE('creator');
#46=CC_DESIGN_PERSON_AND_ORGANIZATION_ASSIGNMENT(#44,#45,(#41));
#47=PERSON('3','Supplier','Joe',$,$,$);
#48=ORGANIZATION($,'None','None');
#49=PERSON_AND_ORGANIZATION(#47,#48);
#50=PERSON_AND_ORGANIZATION_ROLE('design_supplier');
#51=CC_DESIGN_PERSON_AND_ORGANIZATION_ASSIGNMENT(#49,#50,(#41));
#52=APPROVAL_STATUS('approved');
#53=APPROVAL(#52,'None');
#54=PERSON('4','Approver','Joe',$,$,$);
#55=ORGANIZATION($,'None','None');
#56=PERSON_AND_ORGANIZATION(#54,#55);
#57=APPROVAL_ROLE('approver');
#58=APPROVAL_PERSON_ORGANIZATION(#56,#53,#57);
#59=COORDINATED_UNIVERSAL_TIME_OFFSET(8,$,.EXACT.);
#60=CALENDAR_DATE(1996,29,5);
#61=LOCAL_TIME(12,0,0.0,#59);
#62=DATE_AND_TIME(#60,#61);
#63=APPROVAL_DATE_TIME(#62,#53);
#64=CC_DESIGN_APPROVAL(#53,(#41));
#65=SECURITY_CLASSIFICATION_LEVEL('unclassified');
#66=SECURITY_CLASSIFICATION('security','None',#65);
#67=CC_DESIGN_SECURITY_CLASSIFICATION(#66,(#41));
#68=APPROVAL_STATUS('approved');
#69=APPROVAL(#68,'None');
#70=PERSON('5','Approver','Joe',$,$,$);
#71=ORGANIZATION($,'None','None');
#72=PERSON_AND_ORGANIZATION(#70,#71);
#73=APPROVAL_ROLE('approver');
#74=APPROVAL_PERSON_ORGANIZATION(#72,#69,#73);
#75=COORDINATED_UNIVERSAL_TIME_OFFSET(8,$,.EXACT.);
#76=CALENDAR_DATE(1996,29,5);
#77=LOCAL_TIME(12,0,0.0,#75);
#78=DATE_AND_TIME(#76,#77);
#79=APPROVAL_DATE_TIME(#78,#69);
#80=CC_DESIGN_APPROVAL(#69,(#66));
#81=PERSON('6','Classifier','Joe',$,$,$);
#82=ORGANIZATION($,'None','None');
#83=PERSON_AND_ORGANIZATION(#81,#82);
#84=PERSON_AND_ORGANIZATION_ROLE('classification_officer');
#85=CC_DESIGN_PERSON_AND_ORGANIZATION_ASSIGNMENT(#83,#84,(#66));
#86=COORDINATED_UNIVERSAL_TIME_OFFSET(8,$,.EXACT.);
#87=CALENDAR_DATE(1996,29,5);
#88=LOCAL_TIME(12,0,0.0,#86);
#89=DATE_AND_TIME(#87,#88);
#90=DATE_TIME_ROLE('classification_date');
#91=CC_DESIGN_DATE_AND_TIME_ASSIGNMENT(#89,#90,(#66));
#92=DESIGN_CONTEXT('Design Context',#29,'design');
#93=PRODUCT_DEFINITION('None','None',#41,#92);
#94=PERSON('7','Creator','Joe',$,$,$);
#95=ORGANIZATION($,'None','None');
#96=PERSON_AND_ORGANIZATION(#94,#95);
#97=PERSON_AND_ORGANIZATION_ROLE('creator');
#98=CC_DESIGN_PERSON_AND_ORGANIZATION_ASSIGNMENT(#96,#97,(#93));
#99=COORDINATED_UNIVERSAL_TIME_OFFSET(8,$,.EXACT.);
#100=CALENDAR_DATE(1996,29,5);
#101=LOCAL_TIME(12,0,0.0,#99);
#102=DATE_AND_TIME(#100,#101);
#103=DATE_TIME_ROLE('creation_date');
#104=CC_DESIGN_DATE_AND_TIME_ASSIGNMENT(#102,#103,(#93));
#105=APPROVAL_STATUS('approved');
#106=APPROVAL(#105,'None');
#107=PERSON('8','Approver','Joe',$,$,$);
#108=ORGANIZATION($,'None','None');
#109=PERSON_AND_ORGANIZATION(#107,#108);
#110=APPROVAL_ROLE('approver');
#111=APPROVAL_PERSON_ORGANIZATION(#109,#106,#110);
#112=COORDINATED_UNIVERSAL_TIME_OFFSET(8,$,.EXACT.);
#113=CALENDAR_DATE(1996,29,5);
#114=LOCAL_TIME(12,0,0.0,#112);
#115=DATE_AND_TIME(#113,#114);
#116=APPROVAL_DATE_TIME(#115,#106);
#117=CC_DESIGN_APPROVAL(#106,(#93));
#118=CARTESIAN_POINT('NONE',(0.0,0.0,0.0));
#119=DIRECTION('NONE',(0.0,0.0,1.0));
#120=DIRECTION('NONE',(1.0,0.0,0.0));
#121=AXIS2_PLACEMENT_3D('NONE',#118,#119,#120);
#122=SHAPE_REPRESENTATION('SR1',(#121),#28);
#123=PRODUCT_DEFINITION_SHAPE('PDS1','Test Part',#93);
#124=SHAPE_DEFINITION_REPRESENTATION(#123,#122);
#125=CARTESIAN_POINT('',(0.0,0.0,69.999861653645823));
#126=DIRECTION('',(0.0,6.123032E-017,1.0));
#127=DIRECTION('',(-1.0,0.0,0.0));
#128=AXIS2_PLACEMENT_3D('',#125,#126,#127);
#129=CYLINDRICAL_SURFACE('',#128,28.999608018663171);
#130=CARTESIAN_POINT('',(-28.999608018663167,0.0,70.999972873263872));
#131=VERTEX_POINT('',#130);
#132=CARTESIAN_POINT('',(-28.999608018663167,0.0,68.999750434027774));
#133=VERTEX_POINT('',#132);
#134=CARTESIAN_POINT('',(-28.999608018663171,6.123713E-017,70.999972873263872));
#135=DIRECTION('',(0.0,0.0,-1.0));
#136=VECTOR('',#135,2.000222439236097);
#137=LINE('',#134,#136);
#138=EDGE_CURVE('',#131,#133,#137,.T.);
#139=ORIENTED_EDGE('',*,*,#138,.F.);
#140=CARTESIAN_POINT('',(28.999608018663171,3.612548E-015,70.999972873263872));
#141=VERTEX_POINT('',#140);
#142=CARTESIAN_POINT('',(0.0,0.0,70.999972873263872));
#143=DIRECTION('',(0.0,0.0,1.0));
#144=DIRECTION('',(-1.0,0.0,0.0));
#145=AXIS2_PLACEMENT_3D('',#142,#143,#144);
#146=CIRCLE('',#145,28.999608018663171);
#147=EDGE_CURVE('',#141,#131,#146,.T.);
#148=ORIENTED_EDGE('',*,*,#147,.F.);
#149=CARTESIAN_POINT('',(28.999608018663171,3.490073E-015,68.999750434027774));
#150=VERTEX_POINT('',#149);
#151=CARTESIAN_POINT('',(28.999608018663171,3.612548E-015,70.999972873263872));
#152=DIRECTION('',(0.0,0.0,-1.0));
#153=VECTOR('',#152,2.000222439236097);
#154=LINE('',#151,#153);
#155=EDGE_CURVE('',#141,#150,#154,.T.);
#156=ORIENTED_EDGE('',*,*,#155,.T.);
#157=CARTESIAN_POINT('',(0.0,0.0,68.999750434027774));
#158=DIRECTION('',(0.0,0.0,1.0));
#159=DIRECTION('',(-1.0,0.0,0.0));
#160=AXIS2_PLACEMENT_3D('',#157,#158,#159);
#161=CIRCLE('',#160,28.999608018663171);
#162=EDGE_CURVE('',#150,#133,#161,.T.);
#163=ORIENTED_EDGE('',*,*,#162,.T.);
#164=EDGE_LOOP('',(#139,#148,#156,#163));
#165=FACE_OUTER_BOUND('',#164,.T.);
#166=ADVANCED_FACE('',(#165),#129,.T.);
#167=CARTESIAN_POINT('',(0.0,0.0,63.499655490451374));
#168=DIRECTION('',(0.0,6.123032E-017,1.0));
#169=DIRECTION('',(-1.0,0.0,0.0));
#170=AXIS2_PLACEMENT_3D('',#167,#168,#169);
#171=CYLINDRICAL_SURFACE('',#170,30.50029161241314);
#172=CARTESIAN_POINT('',(-30.50029161241314,0.0,68.999750434027774));
#173=VERTEX_POINT('',#172);
#174=CARTESIAN_POINT('',(-30.50029161241314,0.0,57.999560546874974));
#175=VERTEX_POINT('',#174);
#176=CARTESIAN_POINT('',(-30.50029161241314,3.367726E-016,68.999750434027774));
#177=DIRECTION('',(0.0,0.0,-1.0));
#178=VECTOR('',#177,11.0001898871528);
#179=LINE('',#176,#178);
#180=EDGE_CURVE('',#173,#175,#179,.T.);
#181=ORIENTED_EDGE('',*,*,#180,.F.);
#182=CARTESIAN_POINT('',(30.50029161241314,4.071858E-015,68.999750434027774));
#183=VERTEX_POINT('',#182);
#184=CARTESIAN_POINT('',(0.0,0.0,68.999750434027774));
#185=DIRECTION('',(0.0,0.0,1.0));
#186=DIRECTION('',(-1.0,0.0,0.0));
#187=AXIS2_PLACEMENT_3D('',#184,#185,#186);
#188=CIRCLE('',#187,30.50029161241314);
#189=EDGE_CURVE('',#183,#173,#188,.T.);
#190=ORIENTED_EDGE('',*,*,#189,.F.);
#191=CARTESIAN_POINT('',(30.50029161241314,3.398313E-015,57.999560546874974));
#192=VERTEX_POINT('',#191);
#193=CARTESIAN_POINT('',(30.50029161241314,4.071858E-015,68.999750434027774));
#194=DIRECTION('',(0.0,0.0,-1.0));
#195=VECTOR('',#194,11.0001898871528);
#196=LINE('',#193,#195);
#197=EDGE_CURVE('',#183,#192,#196,.T.);
#198=ORIENTED_EDGE('',*,*,#197,.T.);
#199=CARTESIAN_POINT('',(0.0,0.0,57.999560546874974));
#200=DIRECTION('',(0.0,0.0,1.0));
#201=DIRECTION('',(-1.0,0.0,0.0));
#202=AXIS2_PLACEMENT_3D('',#199,#200,#201);
#203=CIRCLE('',#202,30.50029161241314);
#204=EDGE_CURVE('',#192,#175,#203,.T.);
#205=ORIENTED_EDGE('',*,*,#204,.T.);
#206=EDGE_LOOP('',(#181,#190,#198,#205));
#207=FACE_OUTER_BOUND('',#206,.T.);
#208=ADVANCED_FACE('',(#207),#171,.T.);
#209=CARTESIAN_POINT('',(0.0,0.0,29.999546983506949));
#210=DIRECTION('',(0.0,-6.123032E-017,-1.0));
#211=DIRECTION('',(-1.0,0.0,0.0));
#212=AXIS2_PLACEMENT_3D('',#209,#210,#211);
#213=CONICAL_SURFACE('',#212,34.624415418836762,0.766952750729098);
#214=CARTESIAN_POINT('',(-34.249589029947892,0.0,57.999560546874974));
#215=VERTEX_POINT('',#214);
#216=CARTESIAN_POINT('',(-34.999241807725639,0.0,1.999533420138928));
#217=VERTEX_POINT('',#216);
#218=CARTESIAN_POINT('',(-34.249589029947884,1.714450E-015,57.999560546874974));
#219=DIRECTION('',(-0.013385450962681,-6.122483E-017,-0.999910410838154));
#220=VECTOR('',#219,56.005044571738388);
#221=LINE('',#218,#220);
#222=EDGE_CURVE('',#215,#217,#221,.T.);
#223=ORIENTED_EDGE('',*,*,#222,.F.);
#224=CARTESIAN_POINT('',(34.249589029947884,5.908676E-015,57.999560546874974));
#225=VERTEX_POINT('',#224);
#226=CARTESIAN_POINT('',(0.0,0.0,57.999560546874974));
#227=DIRECTION('',(0.0,0.0,1.0));
#228=DIRECTION('',(-1.0,0.0,0.0));
#229=AXIS2_PLACEMENT_3D('',#226,#227,#228);
#230=CIRCLE('',#229,34.249589029947892);
#231=EDGE_CURVE('',#225,#215,#230,.T.);
#232=ORIENTED_EDGE('',*,*,#231,.F.);
#233=CARTESIAN_POINT('',(34.999241807725639,2.571580E-015,1.999533420138924));
#234=VERTEX_POINT('',#233);
#235=CARTESIAN_POINT('',(34.249589029947884,5.908676E-015,57.999560546874974));
#236=DIRECTION('',(0.013385450962681,-5.958564E-017,-0.999910410838154));
#237=VECTOR('',#236,56.005044571738388);
#238=LINE('',#235,#237);
#239=EDGE_CURVE('',#225,#234,#238,.T.);
#240=ORIENTED_EDGE('',*,*,#239,.T.);
#241=CARTESIAN_POINT('',(0.0,0.0,1.999533420138924));
#242=DIRECTION('',(0.0,0.0,1.0));
#243=DIRECTION('',(-1.0,0.0,0.0));
#244=AXIS2_PLACEMENT_3D('',#241,#242,#243);
#245=CIRCLE('',#244,34.999241807725639);
#246=EDGE_CURVE('',#234,#217,#245,.T.);
#247=ORIENTED_EDGE('',*,*,#246,.T.);
#248=EDGE_LOOP('',(#223,#232,#240,#247));
#249=FACE_OUTER_BOUND('',#248,.T.);
#250=ADVANCED_FACE('',(#249),#213,.T.);
#251=CARTESIAN_POINT('',(0.0,0.0,0.999766710069466));
#252=DIRECTION('',(0.0,6.123032E-017,1.0));
#253=DIRECTION('',(-1.0,0.0,0.0));
#254=AXIS2_PLACEMENT_3D('',#251,#252,#253);
#255=CONICAL_SURFACE('',#254,33.249822319878447,14.045534173133577);
#256=CARTESIAN_POINT('',(-33.499936252170123,0.0,1.999533420138928));
#257=VERTEX_POINT('',#256);
#258=CARTESIAN_POINT('',(-32.999708387586772,0.0,0.0));
#259=VERTEX_POINT('',#258);
#260=CARTESIAN_POINT('',(-33.499936252170123,6.121603E-017,1.999533420138923));
#261=DIRECTION('',(0.24269293374777,-5.939972E-017,-0.970103159415998));
#262=VECTOR('',#261,2.06115545623276);
#263=LINE('',#260,#262);
#264=EDGE_CURVE('',#257,#259,#263,.T.);
#265=ORIENTED_EDGE('',*,*,#264,.F.);
#266=CARTESIAN_POINT('',(33.499936252170123,4.163640E-015,1.999533420138923));
#267=VERTEX_POINT('',#266);
#268=CARTESIAN_POINT('',(0.0,0.0,1.999533420138924));
#269=DIRECTION('',(0.0,0.0,1.0));
#270=DIRECTION('',(-1.0,0.0,0.0));
#271=AXIS2_PLACEMENT_3D('',#268,#269,#270);
#272=CIRCLE('',#271,33.499936252170116);
#273=EDGE_CURVE('',#267,#257,#272,.T.);
#274=ORIENTED_EDGE('',*,*,#273,.F.);
#275=CARTESIAN_POINT('',(32.999708387586772,3.979949E-015,-1.554312E-015));
#276=VERTEX_POINT('',#275);
#277=CARTESIAN_POINT('',(33.499936252170123,4.163640E-015,1.999533420138923));
#278=DIRECTION('',(-0.24269293374777,-8.912006E-017,-0.970103159415998));
#279=VECTOR('',#278,2.061155456232761);
#280=LINE('',#277,#279);
#281=EDGE_CURVE('',#267,#276,#280,.T.);
#282=ORIENTED_EDGE('',*,*,#281,.T.);
#283=CARTESIAN_POINT('',(0.0,0.0,0.0));
#284=DIRECTION('',(0.0,0.0,1.0));
#285=DIRECTION('',(-1.0,0.0,0.0));
#286=AXIS2_PLACEMENT_3D('',#283,#284,#285);
#287=CIRCLE('',#286,32.999708387586765);
#288=EDGE_CURVE('',#276,#259,#287,.T.);
#289=ORIENTED_EDGE('',*,*,#288,.T.);
#290=EDGE_LOOP('',(#265,#274,#282,#289));
#291=FACE_OUTER_BOUND('',#290,.T.);
#292=ADVANCED_FACE('',(#291),#255,.T.);
#293=CARTESIAN_POINT('',(-14.499804009331587,0.0,70.999972873263872));
#294=DIRECTION('',(0.0,0.0,1.0));
#295=DIRECTION('',(0.0,-1.0,0.0));
#296=AXIS2_PLACEMENT_3D('',#293,#294,#295);
#297=PLANE('',#296);
#298=CARTESIAN_POINT('',(0.0,0.0,70.999972873263872));
#299=DIRECTION('',(0.0,0.0,1.0));
#300=DIRECTION('',(-1.0,0.0,0.0));
#301=AXIS2_PLACEMENT_3D('',#298,#299,#300);
#302=CIRCLE('',#301,28.999608018663171);
#303=EDGE_CURVE('',#131,#141,#302,.T.);
#304=ORIENTED_EDGE('',*,*,#303,.T.);
#305=ORIENTED_EDGE('',*,*,#147,.T.);
#306=EDGE_LOOP('',(#304,#305));
#307=FACE_OUTER_BOUND('',#306,.T.);
#308=ADVANCED_FACE('',(#307),#297,.T.);
#309=CARTESIAN_POINT('',(-16.499854193793382,0.0,0.0));
#310=DIRECTION('',(0.0,0.0,-1.0));
#311=DIRECTION('',(0.0,1.0,0.0));
#312=AXIS2_PLACEMENT_3D('',#309,#310,#311);
#313=PLANE('',#312);
#314=CARTESIAN_POINT('',(0.0,0.0,0.0));
#315=DIRECTION('',(0.0,0.0,1.0));
#316=DIRECTION('',(-1.0,0.0,0.0));
#317=AXIS2_PLACEMENT_3D('',#314,#315,#316);
#318=CIRCLE('',#317,32.999708387586765);
#319=EDGE_CURVE('',#259,#276,#318,.T.);
#320=ORIENTED_EDGE('',*,*,#319,.F.);
#321=ORIENTED_EDGE('',*,*,#288,.F.);
#322=EDGE_LOOP('',(#320,#321));
#323=FACE_OUTER_BOUND('',#322,.T.);
#324=ADVANCED_FACE('',(#323),#313,.T.);
#325=CARTESIAN_POINT('',(0.0,0.0,0.999766710069466));
#326=DIRECTION('',(0.0,6.123032E-017,1.0));
#327=DIRECTION('',(-1.0,0.0,0.0));
#328=AXIS2_PLACEMENT_3D('',#325,#326,#327);
#329=CONICAL_SURFACE('',#328,33.249822319878447,14.045534173133577);
#330=ORIENTED_EDGE('',*,*,#264,.T.);
#331=ORIENTED_EDGE('',*,*,#319,.T.);
#332=ORIENTED_EDGE('',*,*,#281,.F.);
#333=CARTESIAN_POINT('',(0.0,0.0,1.999533420138924));
#334=DIRECTION('',(0.0,0.0,1.0));
#335=DIRECTION('',(-1.0,0.0,0.0));
#336=AXIS2_PLACEMENT_3D('',#333,#334,#335);
#337=CIRCLE('',#336,33.499936252170116);
#338=EDGE_CURVE('',#257,#267,#337,.T.);
#339=ORIENTED_EDGE('',*,*,#338,.F.);
#340=EDGE_LOOP('',(#330,#331,#332,#339));
#341=FACE_OUTER_BOUND('',#340,.T.);
#342=ADVANCED_FACE('',(#341),#329,.T.);
#343=CARTESIAN_POINT('',(-34.249589029947877,0.0,1.999533420138928));
#344=DIRECTION('',(0.0,0.0,-1.0));
#345=DIRECTION('',(0.0,1.0,0.0));
#346=AXIS2_PLACEMENT_3D('',#343,#344,#345);
#347=PLANE('',#346);
#348=CARTESIAN_POINT('',(0.0,0.0,1.999533420138924));
#349=DIRECTION('',(0.0,0.0,1.0));
#350=DIRECTION('',(-1.0,0.0,0.0));
#351=AXIS2_PLACEMENT_3D('',#348,#349,#350);
#352=CIRCLE('',#351,34.999241807725639);
#353=EDGE_CURVE('',#217,#234,#352,.T.);
#354=ORIENTED_EDGE('',*,*,#353,.F.);
#355=ORIENTED_EDGE('',*,*,#246,.F.);
#356=EDGE_LOOP('',(#354,#355));
#357=FACE_OUTER_BOUND('',#356,.T.);
#358=ORIENTED_EDGE('',*,*,#338,.T.);
#359=ORIENTED_EDGE('',*,*,#273,.T.);
#360=EDGE_LOOP('',(#358,#359));
#361=FACE_BOUND('',#360,.T.);
#362=ADVANCED_FACE('',(#357,#361),#347,.T.);
#363=CARTESIAN_POINT('',(0.0,0.0,29.999546983506949));
#364=DIRECTION('',(0.0,-6.123032E-017,-1.0));
#365=DIRECTION('',(-1.0,0.0,0.0));
#366=AXIS2_PLACEMENT_3D('',#363,#364,#365);
#367=CONICAL_SURFACE('',#366,34.624415418836762,0.766952750729098);
#368=ORIENTED_EDGE('',*,*,#222,.T.);
#369=ORIENTED_EDGE('',*,*,#353,.T.);
#370=ORIENTED_EDGE('',*,*,#239,.F.);
#371=CARTESIAN_POINT('',(0.0,0.0,57.999560546874974));
#372=DIRECTION('',(0.0,0.0,1.0));
#373=DIRECTION('',(-1.0,0.0,0.0));
#374=AXIS2_PLACEMENT_3D('',#371,#372,#373);
#375=CIRCLE('',#374,34.249589029947892);
#376=EDGE_CURVE('',#215,#225,#375,.T.);
#377=ORIENTED_EDGE('',*,*,#376,.F.);
#378=EDGE_LOOP('',(#368,#369,#370,#377));
#379=FACE_OUTER_BOUND('',#378,.T.);
#380=ADVANCED_FACE('',(#379),#367,.T.);
#381=CARTESIAN_POINT('',(-32.374940321180517,0.0,57.999560546874974));
#382=DIRECTION('',(0.0,0.0,1.0));
#383=DIRECTION('',(0.0,-1.0,0.0));
#384=AXIS2_PLACEMENT_3D('',#381,#382,#383);
#385=PLANE('',#384);
#386=ORIENTED_EDGE('',*,*,#376,.T.);
#387=ORIENTED_EDGE('',*,*,#231,.T.);
#388=EDGE_LOOP('',(#386,#387));
#389=FACE_OUTER_BOUND('',#388,.T.);
#390=CARTESIAN_POINT('',(0.0,0.0,57.999560546874974));
#391=DIRECTION('',(0.0,0.0,1.0));
#392=DIRECTION('',(-1.0,0.0,0.0));
#393=AXIS2_PLACEMENT_3D('',#390,#391,#392);
#394=CIRCLE('',#393,30.50029161241314);
#395=EDGE_CURVE('',#175,#192,#394,.T.);
#396=ORIENTED_EDGE('',*,*,#395,.F.);
#397=ORIENTED_EDGE('',*,*,#204,.F.);
#398=EDGE_LOOP('',(#396,#397));
#399=FACE_BOUND('',#398,.T.);
#400=ADVANCED_FACE('',(#389,#399),#385,.T.);
#401=CARTESIAN_POINT('',(0.0,0.0,63.499655490451374));
#402=DIRECTION('',(0.0,6.123032E-017,1.0));
#403=DIRECTION('',(-1.0,0.0,0.0));
#404=AXIS2_PLACEMENT_3D('',#401,#402,#403);
#405=CYLINDRICAL_SURFACE('',#404,30.50029161241314);
#406=ORIENTED_EDGE('',*,*,#180,.T.);
#407=ORIENTED_EDGE('',*,*,#395,.T.);
#408=ORIENTED_EDGE('',*,*,#197,.F.);
#409=CARTESIAN_POINT('',(0.0,0.0,68.999750434027774));
#410=DIRECTION('',(0.0,0.0,1.0));
#411=DIRECTION('',(-1.0,0.0,0.0));
#412=AXIS2_PLACEMENT_3D('',#409,#410,#411);
#413=CIRCLE('',#412,30.50029161241314);
#414=EDGE_CURVE('',#173,#183,#413,.T.);
#415=ORIENTED_EDGE('',*,*,#414,.F.);
#416=EDGE_LOOP('',(#406,#407,#408,#415));
#417=FACE_OUTER_BOUND('',#416,.T.);
#418=ADVANCED_FACE('',(#417),#405,.T.);
#419=CARTESIAN_POINT('',(-29.749949815538152,0.0,68.999750434027774));
#420=DIRECTION('',(0.0,0.0,1.0));
#421=DIRECTION('',(0.0,-1.0,0.0));
#422=AXIS2_PLACEMENT_3D('',#419,#420,#421);
#423=PLANE('',#422);
#424=ORIENTED_EDGE('',*,*,#414,.T.);
#425=ORIENTED_EDGE('',*,*,#189,.T.);
#426=EDGE_LOOP('',(#424,#425));
#427=FACE_OUTER_BOUND('',#426,.T.);
#428=CARTESIAN_POINT('',(0.0,0.0,68.999750434027774));
#429=DIRECTION('',(0.0,0.0,1.0));
#430=DIRECTION('',(-1.0,0.0,0.0));
#431=AXIS2_PLACEMENT_3D('',#428,#429,#430);
#432=CIRCLE('',#431,28.999608018663171);
#433=EDGE_CURVE('',#133,#150,#432,.T.);
#434=ORIENTED_EDGE('',*,*,#433,.F.);
#435=ORIENTED_EDGE('',*,*,#162,.F.);
#436=EDGE_LOOP('',(#434,#435));
#437=FACE_BOUND('',#436,.T.);
#438=ADVANCED_FACE('',(#427,#437),#423,.T.);
#439=CARTESIAN_POINT('',(0.0,0.0,69.999861653645823));
#440=DIRECTION('',(0.0,6.123032E-017,1.0));
#441=DIRECTION('',(-1.0,0.0,0.0));
#442=AXIS2_PLACEMENT_3D('',#439,#440,#441);
#443=CYLINDRICAL_SURFACE('',#442,28.999608018663171);
#444=ORIENTED_EDGE('',*,*,#138,.T.);
#445=ORIENTED_EDGE('',*,*,#433,.T.);
#446=ORIENTED_EDGE('',*,*,#155,.F.);
#447=ORIENTED_EDGE('',*,*,#303,.F.);
#448=EDGE_LOOP('',(#444,#445,#446,#447));
#449=FACE_OUTER_BOUND('',#448,.T.);
#450=ADVANCED_FACE('',(#449),#443,.T.);
#451=CLOSED_SHELL('',(#166,#208,#250,#292,#308,#324,#342,#362,#380,#400,#418,#438,#450));
#452=MANIFOLD_SOLID_BREP('8933',#451);
#453=ADVANCED_BREP_SHAPE_REPRESENTATION('ABSR1',(#452),#28);
#454=SHAPE_REPRESENTATION_RELATIONSHIP('SRRPL1','',#453,#122);
ENDSEC;
END-ISO-10303-21;
