ISO-10303-21;
HEADER;
/****************************************************************
 * Generated by software with PDElib inside                    *
 * PDElib Version v51a, created Fri 09/10/2010                  *
 * ITI Transcendata (http://www.transcendata.com/)              *
 ****************************************************************/
FILE_DESCRIPTION((''),'2;1');
FILE_NAME('3d_8LT7BM01.stp','2012-10-02T14:08:50',(''),(''),'Mechanical Desktop 2011','Mechanical Desktop 2011',', , ');
FILE_SCHEMA(('CONFIG_CONTROL_DESIGN'));
ENDSEC;
DATA;
#10=(NAMED_UNIT(*)PLANE_ANGLE_UNIT()SI_UNIT($,.RADIAN.));
#11=DIMENSIONAL_EXPONENTS(0.0,0.0,0.0,0.0,0.0,0.0,0.0);
#12=PLANE_ANGLE_MEASURE_WITH_UNIT(PLANE_ANGLE_MEASURE(0.0174532925),#10);
#16=(CONVERSION_BASED_UNIT('DEGREE',#12)NAMED_UNIT(#11)PLANE_ANGLE_UNIT());
#20=(NAMED_UNIT(*)SI_UNIT($,.STERADIAN.)SOLID_ANGLE_UNIT());
#24=(LENGTH_UNIT()NAMED_UNIT(*)SI_UNIT(.MILLI.,.METRE.));
#26=UNCERTAINTY_MEASURE_WITH_UNIT(LENGTH_MEASURE(0.000001),#24,'DISTANCE_ACCURACY_VALUE','');
#28=(GEOMETRIC_REPRESENTATION_CONTEXT(3)GLOBAL_UNCERTAINTY_ASSIGNED_CONTEXT((#26))GLOBAL_UNIT_ASSIGNED_CONTEXT((#16,#20,#24))REPRESENTATION_CONTEXT('','3D'));
#29=APPLICATION_CONTEXT('CONFIGURATION CONTROLLED 3D DESIGNS OF MECHANICAL PARTS AND ASSEMBLIES');
#30=APPLICATION_PROTOCOL_DEFINITION('INTERNATIONAL STANDARD','config_control_design',1995,#29);
#31=MECHANICAL_CONTEXT('3D Mechanical Parts',#29,'mechanical');
#32=PRODUCT('Product','Product',' ',(#31));
#33=PRODUCT_RELATED_PRODUCT_CATEGORY('detail',$,(#32));
#34=PRODUCT_CATEGORY('part',$);
#35=PRODUCT_CATEGORY_RELATIONSHIP('None','None',#34,#33);
#36=PERSON('1','Design','Joe',$,$,$);
#37=ORGANIZATION($,'None','None');
#38=PERSON_AND_ORGANIZATION(#36,#37);
#39=PERSON_AND_ORGANIZATION_ROLE('design_owner');
#40=CC_DESIGN_PERSON_AND_ORGANIZATION_ASSIGNMENT(#38,#39,(#32));
#41=PRODUCT_DEFINITION_FORMATION_WITH_SPECIFIED_SOURCE('None','None',#32,.BOUGHT.);
#42=PERSON('2','Creator','Joe',$,$,$);
#43=ORGANIZATION($,'None','None');
#44=PERSON_AND_ORGANIZATION(#42,#43);
#45=PERSON_AND_ORGANIZATION_ROLE('creator');
#46=CC_DESIGN_PERSON_AND_ORGANIZATION_ASSIGNMENT(#44,#45,(#41));
#47=PERSON('3','Supplier','Joe',$,$,$);
#48=ORGANIZATION($,'None','None');
#49=PERSON_AND_ORGANIZATION(#47,#48);
#50=PERSON_AND_ORGANIZATION_ROLE('design_supplier');
#51=CC_DESIGN_PERSON_AND_ORGANIZATION_ASSIGNMENT(#49,#50,(#41));
#52=APPROVAL_STATUS('approved');
#53=APPROVAL(#52,'None');
#54=PERSON('4','Approver','Joe',$,$,$);
#55=ORGANIZATION($,'None','None');
#56=PERSON_AND_ORGANIZATION(#54,#55);
#57=APPROVAL_ROLE('approver');
#58=APPROVAL_PERSON_ORGANIZATION(#56,#53,#57);
#59=COORDINATED_UNIVERSAL_TIME_OFFSET(8,$,.EXACT.);
#60=CALENDAR_DATE(1996,29,5);
#61=LOCAL_TIME(12,0,0.0,#59);
#62=DATE_AND_TIME(#60,#61);
#63=APPROVAL_DATE_TIME(#62,#53);
#64=CC_DESIGN_APPROVAL(#53,(#41));
#65=SECURITY_CLASSIFICATION_LEVEL('unclassified');
#66=SECURITY_CLASSIFICATION('security','None',#65);
#67=CC_DESIGN_SECURITY_CLASSIFICATION(#66,(#41));
#68=APPROVAL_STATUS('approved');
#69=APPROVAL(#68,'None');
#70=PERSON('5','Approver','Joe',$,$,$);
#71=ORGANIZATION($,'None','None');
#72=PERSON_AND_ORGANIZATION(#70,#71);
#73=APPROVAL_ROLE('approver');
#74=APPROVAL_PERSON_ORGANIZATION(#72,#69,#73);
#75=COORDINATED_UNIVERSAL_TIME_OFFSET(8,$,.EXACT.);
#76=CALENDAR_DATE(1996,29,5);
#77=LOCAL_TIME(12,0,0.0,#75);
#78=DATE_AND_TIME(#76,#77);
#79=APPROVAL_DATE_TIME(#78,#69);
#80=CC_DESIGN_APPROVAL(#69,(#66));
#81=PERSON('6','Classifier','Joe',$,$,$);
#82=ORGANIZATION($,'None','None');
#83=PERSON_AND_ORGANIZATION(#81,#82);
#84=PERSON_AND_ORGANIZATION_ROLE('classification_officer');
#85=CC_DESIGN_PERSON_AND_ORGANIZATION_ASSIGNMENT(#83,#84,(#66));
#86=COORDINATED_UNIVERSAL_TIME_OFFSET(8,$,.EXACT.);
#87=CALENDAR_DATE(1996,29,5);
#88=LOCAL_TIME(12,0,0.0,#86);
#89=DATE_AND_TIME(#87,#88);
#90=DATE_TIME_ROLE('classification_date');
#91=CC_DESIGN_DATE_AND_TIME_ASSIGNMENT(#89,#90,(#66));
#92=DESIGN_CONTEXT('Design Context',#29,'design');
#93=PRODUCT_DEFINITION('None','None',#41,#92);
#94=PERSON('7','Creator','Joe',$,$,$);
#95=ORGANIZATION($,'None','None');
#96=PERSON_AND_ORGANIZATION(#94,#95);
#97=PERSON_AND_ORGANIZATION_ROLE('creator');
#98=CC_DESIGN_PERSON_AND_ORGANIZATION_ASSIGNMENT(#96,#97,(#93));
#99=COORDINATED_UNIVERSAL_TIME_OFFSET(8,$,.EXACT.);
#100=CALENDAR_DATE(1996,29,5);
#101=LOCAL_TIME(12,0,0.0,#99);
#102=DATE_AND_TIME(#100,#101);
#103=DATE_TIME_ROLE('creation_date');
#104=CC_DESIGN_DATE_AND_TIME_ASSIGNMENT(#102,#103,(#93));
#105=APPROVAL_STATUS('approved');
#106=APPROVAL(#105,'None');
#107=PERSON('8','Approver','Joe',$,$,$);
#108=ORGANIZATION($,'None','None');
#109=PERSON_AND_ORGANIZATION(#107,#108);
#110=APPROVAL_ROLE('approver');
#111=APPROVAL_PERSON_ORGANIZATION(#109,#106,#110);
#112=COORDINATED_UNIVERSAL_TIME_OFFSET(8,$,.EXACT.);
#113=CALENDAR_DATE(1996,29,5);
#114=LOCAL_TIME(12,0,0.0,#112);
#115=DATE_AND_TIME(#113,#114);
#116=APPROVAL_DATE_TIME(#115,#106);
#117=CC_DESIGN_APPROVAL(#106,(#93));
#118=CARTESIAN_POINT('NONE',(0.0,0.0,0.0));
#119=DIRECTION('NONE',(0.0,0.0,1.0));
#120=DIRECTION('NONE',(1.0,0.0,0.0));
#121=AXIS2_PLACEMENT_3D('NONE',#118,#119,#120);
#122=SHAPE_REPRESENTATION('SR1',(#121),#28);
#123=PRODUCT_DEFINITION_SHAPE('PDS1','Test Part',#93);
#124=SHAPE_DEFINITION_REPRESENTATION(#123,#122);
#125=CARTESIAN_POINT('',(0.0,0.0,14.5));
#126=DIRECTION('',(0.0,0.0,1.0));
#127=DIRECTION('',(1.0,0.0,0.0));
#128=AXIS2_PLACEMENT_3D('',#125,#126,#127);
#129=CYLINDRICAL_SURFACE('',#128,15.0);
#130=CARTESIAN_POINT('',(15.0,0.0,20.0));
#131=VERTEX_POINT('',#130);
#132=CARTESIAN_POINT('',(15.0,0.0,9.0));
#133=VERTEX_POINT('',#132);
#134=CARTESIAN_POINT('',(15.0,0.0,20.0));
#135=DIRECTION('',(0.0,0.0,-1.0));
#136=VECTOR('',#135,11.0);
#137=LINE('',#134,#136);
#138=EDGE_CURVE('',#131,#133,#137,.T.);
#139=ORIENTED_EDGE('',*,*,#138,.F.);
#140=CARTESIAN_POINT('',(-15.0,-1.836910E-015,20.0));
#141=VERTEX_POINT('',#140);
#142=CARTESIAN_POINT('',(0.0,0.0,20.0));
#143=DIRECTION('',(0.0,0.0,1.0));
#144=DIRECTION('',(1.0,0.0,0.0));
#145=AXIS2_PLACEMENT_3D('',#142,#143,#144);
#146=CIRCLE('',#145,15.0);
#147=EDGE_CURVE('',#141,#131,#146,.T.);
#148=ORIENTED_EDGE('',*,*,#147,.F.);
#149=CARTESIAN_POINT('',(-15.0,-1.836910E-015,9.0));
#150=VERTEX_POINT('',#149);
#151=CARTESIAN_POINT('',(-15.0,-1.836910E-015,20.0));
#152=DIRECTION('',(0.0,0.0,-1.0));
#153=VECTOR('',#152,11.0);
#154=LINE('',#151,#153);
#155=EDGE_CURVE('',#141,#150,#154,.T.);
#156=ORIENTED_EDGE('',*,*,#155,.T.);
#157=CARTESIAN_POINT('',(0.0,0.0,9.0));
#158=DIRECTION('',(0.0,0.0,-1.0));
#159=DIRECTION('',(1.0,0.0,0.0));
#160=AXIS2_PLACEMENT_3D('',#157,#158,#159);
#161=CIRCLE('',#160,15.0);
#162=EDGE_CURVE('',#133,#150,#161,.T.);
#163=ORIENTED_EDGE('',*,*,#162,.F.);
#164=EDGE_LOOP('',(#139,#148,#156,#163));
#165=FACE_OUTER_BOUND('',#164,.T.);
#166=ADVANCED_FACE('',(#165),#129,.T.);
#167=CARTESIAN_POINT('',(1.776357E-015,27.000000000000007,4.5));
#168=DIRECTION('',(0.0,0.0,1.0));
#169=DIRECTION('',(1.0,0.0,0.0));
#170=AXIS2_PLACEMENT_3D('',#167,#168,#169);
#171=CYLINDRICAL_SURFACE('',#170,2.5);
#172=CARTESIAN_POINT('',(2.500000000000002,27.000000000000007,0.0));
#173=VERTEX_POINT('',#172);
#174=CARTESIAN_POINT('',(2.500000000000002,27.000000000000007,9.0));
#175=VERTEX_POINT('',#174);
#176=CARTESIAN_POINT('',(2.500000000000002,27.000000000000007,0.0));
#177=DIRECTION('',(0.0,0.0,1.0));
#178=VECTOR('',#177,9.0);
#179=LINE('',#176,#178);
#180=EDGE_CURVE('',#173,#175,#179,.T.);
#181=ORIENTED_EDGE('',*,*,#180,.F.);
#182=CARTESIAN_POINT('',(-2.499999999999998,27.000000000000007,0.0));
#183=VERTEX_POINT('',#182);
#184=CARTESIAN_POINT('',(1.776357E-015,27.000000000000007,0.0));
#185=DIRECTION('',(0.0,0.0,1.0));
#186=DIRECTION('',(1.0,0.0,0.0));
#187=AXIS2_PLACEMENT_3D('',#184,#185,#186);
#188=CIRCLE('',#187,2.5);
#189=EDGE_CURVE('',#183,#173,#188,.T.);
#190=ORIENTED_EDGE('',*,*,#189,.F.);
#191=CARTESIAN_POINT('',(-2.499999999999998,27.000000000000007,9.0));
#192=VERTEX_POINT('',#191);
#193=CARTESIAN_POINT('',(-2.499999999999998,27.000000000000007,0.0));
#194=DIRECTION('',(0.0,0.0,1.0));
#195=VECTOR('',#194,9.0);
#196=LINE('',#193,#195);
#197=EDGE_CURVE('',#183,#192,#196,.T.);
#198=ORIENTED_EDGE('',*,*,#197,.T.);
#199=CARTESIAN_POINT('',(1.776357E-015,27.000000000000007,9.0));
#200=DIRECTION('',(0.0,0.0,-1.0));
#201=DIRECTION('',(1.0,0.0,0.0));
#202=AXIS2_PLACEMENT_3D('',#199,#200,#201);
#203=CIRCLE('',#202,2.5);
#204=EDGE_CURVE('',#175,#192,#203,.T.);
#205=ORIENTED_EDGE('',*,*,#204,.F.);
#206=EDGE_LOOP('',(#181,#190,#198,#205));
#207=FACE_OUTER_BOUND('',#206,.T.);
#208=ADVANCED_FACE('',(#207),#171,.F.);
#209=CARTESIAN_POINT('',(-27.000000000000007,0.0,4.5));
#210=DIRECTION('',(0.0,0.0,1.0));
#211=DIRECTION('',(0.0,1.0,0.0));
#212=AXIS2_PLACEMENT_3D('',#209,#210,#211);
#213=CYLINDRICAL_SURFACE('',#212,2.5);
#214=CARTESIAN_POINT('',(-27.000000000000007,2.5,0.0));
#215=VERTEX_POINT('',#214);
#216=CARTESIAN_POINT('',(-27.000000000000007,2.5,9.0));
#217=VERTEX_POINT('',#216);
#218=CARTESIAN_POINT('',(-27.000000000000007,2.5,0.0));
#219=DIRECTION('',(0.0,0.0,1.0));
#220=VECTOR('',#219,9.0);
#221=LINE('',#218,#220);
#222=EDGE_CURVE('',#215,#217,#221,.T.);
#223=ORIENTED_EDGE('',*,*,#222,.F.);
#224=CARTESIAN_POINT('',(-27.000000000000007,-2.5,0.0));
#225=VERTEX_POINT('',#224);
#226=CARTESIAN_POINT('',(-27.000000000000007,0.0,0.0));
#227=DIRECTION('',(0.0,0.0,1.0));
#228=DIRECTION('',(0.0,1.0,0.0));
#229=AXIS2_PLACEMENT_3D('',#226,#227,#228);
#230=CIRCLE('',#229,2.5);
#231=EDGE_CURVE('',#225,#215,#230,.T.);
#232=ORIENTED_EDGE('',*,*,#231,.F.);
#233=CARTESIAN_POINT('',(-27.000000000000007,-2.5,9.0));
#234=VERTEX_POINT('',#233);
#235=CARTESIAN_POINT('',(-27.000000000000007,-2.5,0.0));
#236=DIRECTION('',(0.0,0.0,1.0));
#237=VECTOR('',#236,9.0);
#238=LINE('',#235,#237);
#239=EDGE_CURVE('',#225,#234,#238,.T.);
#240=ORIENTED_EDGE('',*,*,#239,.T.);
#241=CARTESIAN_POINT('',(-27.000000000000007,0.0,9.0));
#242=DIRECTION('',(0.0,0.0,-1.0));
#243=DIRECTION('',(0.0,1.0,0.0));
#244=AXIS2_PLACEMENT_3D('',#241,#242,#243);
#245=CIRCLE('',#244,2.5);
#246=EDGE_CURVE('',#217,#234,#245,.T.);
#247=ORIENTED_EDGE('',*,*,#246,.F.);
#248=EDGE_LOOP('',(#223,#232,#240,#247));
#249=FACE_OUTER_BOUND('',#248,.T.);
#250=ADVANCED_FACE('',(#249),#213,.F.);
#251=CARTESIAN_POINT('',(-5.329071E-015,-27.0,4.5));
#252=DIRECTION('',(0.0,0.0,1.0));
#253=DIRECTION('',(-1.0,0.0,0.0));
#254=AXIS2_PLACEMENT_3D('',#251,#252,#253);
#255=CYLINDRICAL_SURFACE('',#254,2.5);
#256=CARTESIAN_POINT('',(-2.500000000000005,-27.0,0.0));
#257=VERTEX_POINT('',#256);
#258=CARTESIAN_POINT('',(-2.500000000000005,-27.0,9.0));
#259=VERTEX_POINT('',#258);
#260=CARTESIAN_POINT('',(-2.500000000000005,-27.0,0.0));
#261=DIRECTION('',(0.0,0.0,1.0));
#262=VECTOR('',#261,9.0);
#263=LINE('',#260,#262);
#264=EDGE_CURVE('',#257,#259,#263,.T.);
#265=ORIENTED_EDGE('',*,*,#264,.F.);
#266=CARTESIAN_POINT('',(2.499999999999995,-27.0,0.0));
#267=VERTEX_POINT('',#266);
#268=CARTESIAN_POINT('',(-5.329071E-015,-27.0,0.0));
#269=DIRECTION('',(0.0,0.0,1.0));
#270=DIRECTION('',(-1.0,0.0,0.0));
#271=AXIS2_PLACEMENT_3D('',#268,#269,#270);
#272=CIRCLE('',#271,2.5);
#273=EDGE_CURVE('',#267,#257,#272,.T.);
#274=ORIENTED_EDGE('',*,*,#273,.F.);
#275=CARTESIAN_POINT('',(2.499999999999995,-27.0,9.0));
#276=VERTEX_POINT('',#275);
#277=CARTESIAN_POINT('',(2.499999999999995,-27.0,0.0));
#278=DIRECTION('',(0.0,0.0,1.0));
#279=VECTOR('',#278,9.0);
#280=LINE('',#277,#279);
#281=EDGE_CURVE('',#267,#276,#280,.T.);
#282=ORIENTED_EDGE('',*,*,#281,.T.);
#283=CARTESIAN_POINT('',(-5.329071E-015,-27.0,9.0));
#284=DIRECTION('',(0.0,0.0,-1.0));
#285=DIRECTION('',(-1.0,0.0,0.0));
#286=AXIS2_PLACEMENT_3D('',#283,#284,#285);
#287=CIRCLE('',#286,2.5);
#288=EDGE_CURVE('',#259,#276,#287,.T.);
#289=ORIENTED_EDGE('',*,*,#288,.F.);
#290=EDGE_LOOP('',(#265,#274,#282,#289));
#291=FACE_OUTER_BOUND('',#290,.T.);
#292=ADVANCED_FACE('',(#291),#255,.F.);
#293=CARTESIAN_POINT('',(27.000000000000007,0.0,4.5));
#294=DIRECTION('',(0.0,0.0,1.0));
#295=DIRECTION('',(0.0,-1.0,0.0));
#296=AXIS2_PLACEMENT_3D('',#293,#294,#295);
#297=CYLINDRICAL_SURFACE('',#296,2.5);
#298=CARTESIAN_POINT('',(27.000000000000007,-2.5,0.0));
#299=VERTEX_POINT('',#298);
#300=CARTESIAN_POINT('',(27.000000000000007,-2.5,9.0));
#301=VERTEX_POINT('',#300);
#302=CARTESIAN_POINT('',(27.000000000000007,-2.5,0.0));
#303=DIRECTION('',(0.0,0.0,1.0));
#304=VECTOR('',#303,9.0);
#305=LINE('',#302,#304);
#306=EDGE_CURVE('',#299,#301,#305,.T.);
#307=ORIENTED_EDGE('',*,*,#306,.F.);
#308=CARTESIAN_POINT('',(27.000000000000007,2.5,0.0));
#309=VERTEX_POINT('',#308);
#310=CARTESIAN_POINT('',(27.000000000000007,0.0,0.0));
#311=DIRECTION('',(0.0,0.0,1.0));
#312=DIRECTION('',(0.0,-1.0,0.0));
#313=AXIS2_PLACEMENT_3D('',#310,#311,#312);
#314=CIRCLE('',#313,2.5);
#315=EDGE_CURVE('',#309,#299,#314,.T.);
#316=ORIENTED_EDGE('',*,*,#315,.F.);
#317=CARTESIAN_POINT('',(27.000000000000007,2.5,9.0));
#318=VERTEX_POINT('',#317);
#319=CARTESIAN_POINT('',(27.000000000000007,2.5,0.0));
#320=DIRECTION('',(0.0,0.0,1.0));
#321=VECTOR('',#320,9.0);
#322=LINE('',#319,#321);
#323=EDGE_CURVE('',#309,#318,#322,.T.);
#324=ORIENTED_EDGE('',*,*,#323,.T.);
#325=CARTESIAN_POINT('',(27.000000000000007,0.0,9.0));
#326=DIRECTION('',(0.0,0.0,-1.0));
#327=DIRECTION('',(0.0,-1.0,0.0));
#328=AXIS2_PLACEMENT_3D('',#325,#326,#327);
#329=CIRCLE('',#328,2.5);
#330=EDGE_CURVE('',#301,#318,#329,.T.);
#331=ORIENTED_EDGE('',*,*,#330,.F.);
#332=EDGE_LOOP('',(#307,#316,#324,#331));
#333=FACE_OUTER_BOUND('',#332,.T.);
#334=ADVANCED_FACE('',(#333),#297,.F.);
#335=CARTESIAN_POINT('',(0.0,0.0,4.5));
#336=DIRECTION('',(0.0,0.0,1.0));
#337=DIRECTION('',(1.0,0.0,0.0));
#338=AXIS2_PLACEMENT_3D('',#335,#336,#337);
#339=CYLINDRICAL_SURFACE('',#338,35.0);
#340=CARTESIAN_POINT('',(35.0,0.0,8.0));
#341=VERTEX_POINT('',#340);
#342=CARTESIAN_POINT('',(35.0,0.0,0.0));
#343=VERTEX_POINT('',#342);
#344=CARTESIAN_POINT('',(35.0,0.0,8.0));
#345=DIRECTION('',(0.0,0.0,-1.0));
#346=VECTOR('',#345,8.0);
#347=LINE('',#344,#346);
#348=EDGE_CURVE('',#341,#343,#347,.T.);
#349=ORIENTED_EDGE('',*,*,#348,.F.);
#350=CARTESIAN_POINT('',(-35.0,0.0,8.0));
#351=VERTEX_POINT('',#350);
#352=CARTESIAN_POINT('',(0.0,0.0,8.0));
#353=DIRECTION('',(0.0,0.0,1.0));
#354=DIRECTION('',(-1.0,0.0,0.0));
#355=AXIS2_PLACEMENT_3D('',#352,#353,#354);
#356=CIRCLE('',#355,35.0);
#357=EDGE_CURVE('',#351,#341,#356,.T.);
#358=ORIENTED_EDGE('',*,*,#357,.F.);
#359=CARTESIAN_POINT('',(-35.0,-4.286122E-015,0.0));
#360=VERTEX_POINT('',#359);
#361=CARTESIAN_POINT('',(-35.0,-4.286122E-015,8.0));
#362=DIRECTION('',(0.0,0.0,-1.0));
#363=VECTOR('',#362,8.0);
#364=LINE('',#361,#363);
#365=EDGE_CURVE('',#351,#360,#364,.T.);
#366=ORIENTED_EDGE('',*,*,#365,.T.);
#367=CARTESIAN_POINT('',(0.0,0.0,0.0));
#368=DIRECTION('',(0.0,0.0,-1.0));
#369=DIRECTION('',(1.0,0.0,0.0));
#370=AXIS2_PLACEMENT_3D('',#367,#368,#369);
#371=CIRCLE('',#370,35.0);
#372=EDGE_CURVE('',#343,#360,#371,.T.);
#373=ORIENTED_EDGE('',*,*,#372,.F.);
#374=EDGE_LOOP('',(#349,#358,#366,#373));
#375=FACE_OUTER_BOUND('',#374,.T.);
#376=ADVANCED_FACE('',(#375),#339,.T.);
#377=CARTESIAN_POINT('',(0.0,0.0,8.5));
#378=DIRECTION('',(0.0,0.0,-1.0));
#379=DIRECTION('',(-1.0,0.0,0.0));
#380=AXIS2_PLACEMENT_3D('',#377,#378,#379);
#381=CONICAL_SURFACE('',#380,34.5,44.999999999999993);
#382=CARTESIAN_POINT('',(-34.0,0.0,9.0));
#383=VERTEX_POINT('',#382);
#384=CARTESIAN_POINT('',(-34.0,0.0,9.0));
#385=DIRECTION('',(-0.707106781186547,0.0,-0.707106781186547));
#386=VECTOR('',#385,1.414213562373095);
#387=LINE('',#384,#386);
#388=EDGE_CURVE('',#383,#351,#387,.T.);
#389=ORIENTED_EDGE('',*,*,#388,.F.);
#390=CARTESIAN_POINT('',(34.0,0.0,9.0));
#391=VERTEX_POINT('',#390);
#392=CARTESIAN_POINT('',(0.0,0.0,9.0));
#393=DIRECTION('',(0.0,0.0,-1.0));
#394=DIRECTION('',(-1.0,0.0,0.0));
#395=AXIS2_PLACEMENT_3D('',#392,#393,#394);
#396=CIRCLE('',#395,34.0);
#397=EDGE_CURVE('',#383,#391,#396,.T.);
#398=ORIENTED_EDGE('',*,*,#397,.T.);
#399=CARTESIAN_POINT('',(34.0,4.163662E-015,9.0));
#400=DIRECTION('',(0.707106781186547,8.659275E-017,-0.707106781186547));
#401=VECTOR('',#400,1.414213562373095);
#402=LINE('',#399,#401);
#403=EDGE_CURVE('',#391,#341,#402,.T.);
#404=ORIENTED_EDGE('',*,*,#403,.T.);
#405=CARTESIAN_POINT('',(0.0,0.0,8.0));
#406=DIRECTION('',(0.0,0.0,1.0));
#407=DIRECTION('',(-1.0,0.0,0.0));
#408=AXIS2_PLACEMENT_3D('',#405,#406,#407);
#409=CIRCLE('',#408,35.0);
#410=EDGE_CURVE('',#341,#351,#409,.T.);
#411=ORIENTED_EDGE('',*,*,#410,.T.);
#412=EDGE_LOOP('',(#389,#398,#404,#411));
#413=FACE_OUTER_BOUND('',#412,.T.);
#414=ADVANCED_FACE('',(#413),#381,.T.);
#415=CARTESIAN_POINT('',(0.0,0.0,8.5));
#416=DIRECTION('',(0.0,0.0,-1.0));
#417=DIRECTION('',(-1.0,0.0,0.0));
#418=AXIS2_PLACEMENT_3D('',#415,#416,#417);
#419=CONICAL_SURFACE('',#418,34.5,44.999999999999993);
#420=ORIENTED_EDGE('',*,*,#388,.T.);
#421=ORIENTED_EDGE('',*,*,#357,.T.);
#422=ORIENTED_EDGE('',*,*,#403,.F.);
#423=CARTESIAN_POINT('',(0.0,0.0,9.0));
#424=DIRECTION('',(0.0,0.0,-1.0));
#425=DIRECTION('',(-1.0,0.0,0.0));
#426=AXIS2_PLACEMENT_3D('',#423,#424,#425);
#427=CIRCLE('',#426,34.0);
#428=EDGE_CURVE('',#391,#383,#427,.T.);
#429=ORIENTED_EDGE('',*,*,#428,.T.);
#430=EDGE_LOOP('',(#420,#421,#422,#429));
#431=FACE_OUTER_BOUND('',#430,.T.);
#432=ADVANCED_FACE('',(#431),#419,.T.);
#433=CARTESIAN_POINT('',(0.0,0.0,9.0));
#434=DIRECTION('',(0.0,0.0,1.0));
#435=DIRECTION('',(1.0,0.0,0.0));
#436=AXIS2_PLACEMENT_3D('',#433,#434,#435);
#437=PLANE('',#436);
#438=ORIENTED_EDGE('',*,*,#428,.F.);
#439=ORIENTED_EDGE('',*,*,#397,.F.);
#440=EDGE_LOOP('',(#438,#439));
#441=FACE_OUTER_BOUND('',#440,.T.);
#442=ORIENTED_EDGE('',*,*,#162,.T.);
#443=CARTESIAN_POINT('',(0.0,0.0,9.0));
#444=DIRECTION('',(0.0,0.0,-1.0));
#445=DIRECTION('',(1.0,0.0,0.0));
#446=AXIS2_PLACEMENT_3D('',#443,#444,#445);
#447=CIRCLE('',#446,15.0);
#448=EDGE_CURVE('',#150,#133,#447,.T.);
#449=ORIENTED_EDGE('',*,*,#448,.T.);
#450=EDGE_LOOP('',(#442,#449));
#451=FACE_BOUND('',#450,.T.);
#452=ORIENTED_EDGE('',*,*,#330,.T.);
#453=CARTESIAN_POINT('',(27.000000000000007,0.0,9.0));
#454=DIRECTION('',(0.0,0.0,-1.0));
#455=DIRECTION('',(0.0,-1.0,0.0));
#456=AXIS2_PLACEMENT_3D('',#453,#454,#455);
#457=CIRCLE('',#456,2.5);
#458=EDGE_CURVE('',#318,#301,#457,.T.);
#459=ORIENTED_EDGE('',*,*,#458,.T.);
#460=EDGE_LOOP('',(#452,#459));
#461=FACE_BOUND('',#460,.T.);
#462=ORIENTED_EDGE('',*,*,#288,.T.);
#463=CARTESIAN_POINT('',(-5.329071E-015,-27.0,9.0));
#464=DIRECTION('',(0.0,0.0,-1.0));
#465=DIRECTION('',(-1.0,0.0,0.0));
#466=AXIS2_PLACEMENT_3D('',#463,#464,#465);
#467=CIRCLE('',#466,2.5);
#468=EDGE_CURVE('',#276,#259,#467,.T.);
#469=ORIENTED_EDGE('',*,*,#468,.T.);
#470=EDGE_LOOP('',(#462,#469));
#471=FACE_BOUND('',#470,.T.);
#472=ORIENTED_EDGE('',*,*,#246,.T.);
#473=CARTESIAN_POINT('',(-27.000000000000007,0.0,9.0));
#474=DIRECTION('',(0.0,0.0,-1.0));
#475=DIRECTION('',(0.0,1.0,0.0));
#476=AXIS2_PLACEMENT_3D('',#473,#474,#475);
#477=CIRCLE('',#476,2.5);
#478=EDGE_CURVE('',#234,#217,#477,.T.);
#479=ORIENTED_EDGE('',*,*,#478,.T.);
#480=EDGE_LOOP('',(#472,#479));
#481=FACE_BOUND('',#480,.T.);
#482=ORIENTED_EDGE('',*,*,#204,.T.);
#483=CARTESIAN_POINT('',(1.776357E-015,27.000000000000007,9.0));
#484=DIRECTION('',(0.0,0.0,-1.0));
#485=DIRECTION('',(1.0,0.0,0.0));
#486=AXIS2_PLACEMENT_3D('',#483,#484,#485);
#487=CIRCLE('',#486,2.5);
#488=EDGE_CURVE('',#192,#175,#487,.T.);
#489=ORIENTED_EDGE('',*,*,#488,.T.);
#490=EDGE_LOOP('',(#482,#489));
#491=FACE_BOUND('',#490,.T.);
#492=ADVANCED_FACE('',(#441,#451,#461,#471,#481,#491),#437,.T.);
#493=CARTESIAN_POINT('',(0.0,0.0,4.5));
#494=DIRECTION('',(0.0,0.0,1.0));
#495=DIRECTION('',(1.0,0.0,0.0));
#496=AXIS2_PLACEMENT_3D('',#493,#494,#495);
#497=CYLINDRICAL_SURFACE('',#496,35.0);
#498=ORIENTED_EDGE('',*,*,#348,.T.);
#499=CARTESIAN_POINT('',(0.0,0.0,0.0));
#500=DIRECTION('',(0.0,0.0,-1.0));
#501=DIRECTION('',(1.0,0.0,0.0));
#502=AXIS2_PLACEMENT_3D('',#499,#500,#501);
#503=CIRCLE('',#502,35.0);
#504=EDGE_CURVE('',#360,#343,#503,.T.);
#505=ORIENTED_EDGE('',*,*,#504,.F.);
#506=ORIENTED_EDGE('',*,*,#365,.F.);
#507=ORIENTED_EDGE('',*,*,#410,.F.);
#508=EDGE_LOOP('',(#498,#505,#506,#507));
#509=FACE_OUTER_BOUND('',#508,.T.);
#510=ADVANCED_FACE('',(#509),#497,.T.);
#511=CARTESIAN_POINT('',(27.000000000000007,0.0,4.5));
#512=DIRECTION('',(0.0,0.0,1.0));
#513=DIRECTION('',(0.0,-1.0,0.0));
#514=AXIS2_PLACEMENT_3D('',#511,#512,#513);
#515=CYLINDRICAL_SURFACE('',#514,2.5);
#516=ORIENTED_EDGE('',*,*,#306,.T.);
#517=ORIENTED_EDGE('',*,*,#458,.F.);
#518=ORIENTED_EDGE('',*,*,#323,.F.);
#519=CARTESIAN_POINT('',(27.000000000000007,0.0,0.0));
#520=DIRECTION('',(0.0,0.0,1.0));
#521=DIRECTION('',(0.0,-1.0,0.0));
#522=AXIS2_PLACEMENT_3D('',#519,#520,#521);
#523=CIRCLE('',#522,2.5);
#524=EDGE_CURVE('',#299,#309,#523,.T.);
#525=ORIENTED_EDGE('',*,*,#524,.F.);
#526=EDGE_LOOP('',(#516,#517,#518,#525));
#527=FACE_OUTER_BOUND('',#526,.T.);
#528=ADVANCED_FACE('',(#527),#515,.F.);
#529=CARTESIAN_POINT('',(-5.329071E-015,-27.0,4.5));
#530=DIRECTION('',(0.0,0.0,1.0));
#531=DIRECTION('',(-1.0,0.0,0.0));
#532=AXIS2_PLACEMENT_3D('',#529,#530,#531);
#533=CYLINDRICAL_SURFACE('',#532,2.5);
#534=ORIENTED_EDGE('',*,*,#264,.T.);
#535=ORIENTED_EDGE('',*,*,#468,.F.);
#536=ORIENTED_EDGE('',*,*,#281,.F.);
#537=CARTESIAN_POINT('',(-5.329071E-015,-27.0,0.0));
#538=DIRECTION('',(0.0,0.0,1.0));
#539=DIRECTION('',(-1.0,0.0,0.0));
#540=AXIS2_PLACEMENT_3D('',#537,#538,#539);
#541=CIRCLE('',#540,2.5);
#542=EDGE_CURVE('',#257,#267,#541,.T.);
#543=ORIENTED_EDGE('',*,*,#542,.F.);
#544=EDGE_LOOP('',(#534,#535,#536,#543));
#545=FACE_OUTER_BOUND('',#544,.T.);
#546=ADVANCED_FACE('',(#545),#533,.F.);
#547=CARTESIAN_POINT('',(-27.000000000000007,0.0,4.5));
#548=DIRECTION('',(0.0,0.0,1.0));
#549=DIRECTION('',(0.0,1.0,0.0));
#550=AXIS2_PLACEMENT_3D('',#547,#548,#549);
#551=CYLINDRICAL_SURFACE('',#550,2.5);
#552=ORIENTED_EDGE('',*,*,#222,.T.);
#553=ORIENTED_EDGE('',*,*,#478,.F.);
#554=ORIENTED_EDGE('',*,*,#239,.F.);
#555=CARTESIAN_POINT('',(-27.000000000000007,0.0,0.0));
#556=DIRECTION('',(0.0,0.0,1.0));
#557=DIRECTION('',(0.0,1.0,0.0));
#558=AXIS2_PLACEMENT_3D('',#555,#556,#557);
#559=CIRCLE('',#558,2.5);
#560=EDGE_CURVE('',#215,#225,#559,.T.);
#561=ORIENTED_EDGE('',*,*,#560,.F.);
#562=EDGE_LOOP('',(#552,#553,#554,#561));
#563=FACE_OUTER_BOUND('',#562,.T.);
#564=ADVANCED_FACE('',(#563),#551,.F.);
#565=CARTESIAN_POINT('',(1.776357E-015,27.000000000000007,4.5));
#566=DIRECTION('',(0.0,0.0,1.0));
#567=DIRECTION('',(1.0,0.0,0.0));
#568=AXIS2_PLACEMENT_3D('',#565,#566,#567);
#569=CYLINDRICAL_SURFACE('',#568,2.5);
#570=ORIENTED_EDGE('',*,*,#180,.T.);
#571=ORIENTED_EDGE('',*,*,#488,.F.);
#572=ORIENTED_EDGE('',*,*,#197,.F.);
#573=CARTESIAN_POINT('',(1.776357E-015,27.000000000000007,0.0));
#574=DIRECTION('',(0.0,0.0,1.0));
#575=DIRECTION('',(1.0,0.0,0.0));
#576=AXIS2_PLACEMENT_3D('',#573,#574,#575);
#577=CIRCLE('',#576,2.5);
#578=EDGE_CURVE('',#173,#183,#577,.T.);
#579=ORIENTED_EDGE('',*,*,#578,.F.);
#580=EDGE_LOOP('',(#570,#571,#572,#579));
#581=FACE_OUTER_BOUND('',#580,.T.);
#582=ADVANCED_FACE('',(#581),#569,.F.);
#583=CARTESIAN_POINT('',(0.0,0.0,0.0));
#584=DIRECTION('',(0.0,0.0,-1.0));
#585=DIRECTION('',(-1.0,0.0,0.0));
#586=AXIS2_PLACEMENT_3D('',#583,#584,#585);
#587=PLANE('',#586);
#588=ORIENTED_EDGE('',*,*,#372,.T.);
#589=ORIENTED_EDGE('',*,*,#504,.T.);
#590=EDGE_LOOP('',(#588,#589));
#591=FACE_OUTER_BOUND('',#590,.T.);
#592=ORIENTED_EDGE('',*,*,#524,.T.);
#593=ORIENTED_EDGE('',*,*,#315,.T.);
#594=EDGE_LOOP('',(#592,#593));
#595=FACE_BOUND('',#594,.T.);
#596=ORIENTED_EDGE('',*,*,#542,.T.);
#597=ORIENTED_EDGE('',*,*,#273,.T.);
#598=EDGE_LOOP('',(#596,#597));
#599=FACE_BOUND('',#598,.T.);
#600=ORIENTED_EDGE('',*,*,#560,.T.);
#601=ORIENTED_EDGE('',*,*,#231,.T.);
#602=EDGE_LOOP('',(#600,#601));
#603=FACE_BOUND('',#602,.T.);
#604=ORIENTED_EDGE('',*,*,#578,.T.);
#605=ORIENTED_EDGE('',*,*,#189,.T.);
#606=EDGE_LOOP('',(#604,#605));
#607=FACE_BOUND('',#606,.T.);
#608=ADVANCED_FACE('',(#591,#595,#599,#603,#607),#587,.T.);
#609=CARTESIAN_POINT('',(0.0,0.0,14.5));
#610=DIRECTION('',(0.0,0.0,1.0));
#611=DIRECTION('',(1.0,0.0,0.0));
#612=AXIS2_PLACEMENT_3D('',#609,#610,#611);
#613=CYLINDRICAL_SURFACE('',#612,15.0);
#614=ORIENTED_EDGE('',*,*,#138,.T.);
#615=ORIENTED_EDGE('',*,*,#448,.F.);
#616=ORIENTED_EDGE('',*,*,#155,.F.);
#617=CARTESIAN_POINT('',(0.0,0.0,20.0));
#618=DIRECTION('',(0.0,0.0,1.0));
#619=DIRECTION('',(1.0,0.0,0.0));
#620=AXIS2_PLACEMENT_3D('',#617,#618,#619);
#621=CIRCLE('',#620,15.0);
#622=EDGE_CURVE('',#131,#141,#621,.T.);
#623=ORIENTED_EDGE('',*,*,#622,.F.);
#624=EDGE_LOOP('',(#614,#615,#616,#623));
#625=FACE_OUTER_BOUND('',#624,.T.);
#626=ADVANCED_FACE('',(#625),#613,.T.);
#627=CARTESIAN_POINT('',(0.0,0.0,20.0));
#628=DIRECTION('',(0.0,0.0,1.0));
#629=DIRECTION('',(1.0,0.0,0.0));
#630=AXIS2_PLACEMENT_3D('',#627,#628,#629);
#631=PLANE('',#630);
#632=ORIENTED_EDGE('',*,*,#622,.T.);
#633=ORIENTED_EDGE('',*,*,#147,.T.);
#634=EDGE_LOOP('',(#632,#633));
#635=FACE_OUTER_BOUND('',#634,.T.);
#636=ADVANCED_FACE('',(#635),#631,.T.);
#637=CLOSED_SHELL('',(#166,#208,#250,#292,#334,#376,#414,#432,#492,#510,#528,#546,#564,#582,#608,#626,#636));
#638=MANIFOLD_SOLID_BREP('884F',#637);
#639=ADVANCED_BREP_SHAPE_REPRESENTATION('ABSR1',(#638),#28);
#640=SHAPE_REPRESENTATION_RELATIONSHIP('SRRPL1','',#639,#122);
ENDSEC;
END-ISO-10303-21;
