ISO-10303-21;
HEADER;
/****************************************************************
 * Generated by software with PDElib inside                    *
 * PDElib Version v51a, created Fri 09/10/2010                  *
 * ITI Transcendata (http://www.transcendata.com/)              *
 ****************************************************************/
FILE_DESCRIPTION((''),'2;1');
FILE_NAME('3d_8LB6BP06.stp','2012-10-02T14:09:29',(''),(''),'Mechanical Desktop 2011','Mechanical Desktop 2011',', , ');
FILE_SCHEMA(('CONFIG_CONTROL_DESIGN'));
ENDSEC;
DATA;
#10=(NAMED_UNIT(*)PLANE_ANGLE_UNIT()SI_UNIT($,.RADIAN.));
#11=DIMENSIONAL_EXPONENTS(0.0,0.0,0.0,0.0,0.0,0.0,0.0);
#12=PLANE_ANGLE_MEASURE_WITH_UNIT(PLANE_ANGLE_MEASURE(0.0174532925),#10);
#16=(CONVERSION_BASED_UNIT('DEGREE',#12)NAMED_UNIT(#11)PLANE_ANGLE_UNIT());
#20=(NAMED_UNIT(*)SI_UNIT($,.STERADIAN.)SOLID_ANGLE_UNIT());
#24=(LENGTH_UNIT()NAMED_UNIT(*)SI_UNIT(.MILLI.,.METRE.));
#26=UNCERTAINTY_MEASURE_WITH_UNIT(LENGTH_MEASURE(0.000001),#24,'DISTANCE_ACCURACY_VALUE','');
#28=(GEOMETRIC_REPRESENTATION_CONTEXT(3)GLOBAL_UNCERTAINTY_ASSIGNED_CONTEXT((#26))GLOBAL_UNIT_ASSIGNED_CONTEXT((#16,#20,#24))REPRESENTATION_CONTEXT('','3D'));
#29=APPLICATION_CONTEXT('CONFIGURATION CONTROLLED 3D DESIGNS OF MECHANICAL PARTS AND ASSEMBLIES');
#30=APPLICATION_PROTOCOL_DEFINITION('INTERNATIONAL STANDARD','config_control_design',1995,#29);
#31=MECHANICAL_CONTEXT('3D Mechanical Parts',#29,'mechanical');
#32=PRODUCT('Product','Product',' ',(#31));
#33=PRODUCT_RELATED_PRODUCT_CATEGORY('detail',$,(#32));
#34=PRODUCT_CATEGORY('part',$);
#35=PRODUCT_CATEGORY_RELATIONSHIP('None','None',#34,#33);
#36=PERSON('1','Design','Joe',$,$,$);
#37=ORGANIZATION($,'None','None');
#38=PERSON_AND_ORGANIZATION(#36,#37);
#39=PERSON_AND_ORGANIZATION_ROLE('design_owner');
#40=CC_DESIGN_PERSON_AND_ORGANIZATION_ASSIGNMENT(#38,#39,(#32));
#41=PRODUCT_DEFINITION_FORMATION_WITH_SPECIFIED_SOURCE('None','None',#32,.BOUGHT.);
#42=PERSON('2','Creator','Joe',$,$,$);
#43=ORGANIZATION($,'None','None');
#44=PERSON_AND_ORGANIZATION(#42,#43);
#45=PERSON_AND_ORGANIZATION_ROLE('creator');
#46=CC_DESIGN_PERSON_AND_ORGANIZATION_ASSIGNMENT(#44,#45,(#41));
#47=PERSON('3','Supplier','Joe',$,$,$);
#48=ORGANIZATION($,'None','None');
#49=PERSON_AND_ORGANIZATION(#47,#48);
#50=PERSON_AND_ORGANIZATION_ROLE('design_supplier');
#51=CC_DESIGN_PERSON_AND_ORGANIZATION_ASSIGNMENT(#49,#50,(#41));
#52=APPROVAL_STATUS('approved');
#53=APPROVAL(#52,'None');
#54=PERSON('4','Approver','Joe',$,$,$);
#55=ORGANIZATION($,'None','None');
#56=PERSON_AND_ORGANIZATION(#54,#55);
#57=APPROVAL_ROLE('approver');
#58=APPROVAL_PERSON_ORGANIZATION(#56,#53,#57);
#59=COORDINATED_UNIVERSAL_TIME_OFFSET(8,$,.EXACT.);
#60=CALENDAR_DATE(1996,29,5);
#61=LOCAL_TIME(12,0,0.0,#59);
#62=DATE_AND_TIME(#60,#61);
#63=APPROVAL_DATE_TIME(#62,#53);
#64=CC_DESIGN_APPROVAL(#53,(#41));
#65=SECURITY_CLASSIFICATION_LEVEL('unclassified');
#66=SECURITY_CLASSIFICATION('security','None',#65);
#67=CC_DESIGN_SECURITY_CLASSIFICATION(#66,(#41));
#68=APPROVAL_STATUS('approved');
#69=APPROVAL(#68,'None');
#70=PERSON('5','Approver','Joe',$,$,$);
#71=ORGANIZATION($,'None','None');
#72=PERSON_AND_ORGANIZATION(#70,#71);
#73=APPROVAL_ROLE('approver');
#74=APPROVAL_PERSON_ORGANIZATION(#72,#69,#73);
#75=COORDINATED_UNIVERSAL_TIME_OFFSET(8,$,.EXACT.);
#76=CALENDAR_DATE(1996,29,5);
#77=LOCAL_TIME(12,0,0.0,#75);
#78=DATE_AND_TIME(#76,#77);
#79=APPROVAL_DATE_TIME(#78,#69);
#80=CC_DESIGN_APPROVAL(#69,(#66));
#81=PERSON('6','Classifier','Joe',$,$,$);
#82=ORGANIZATION($,'None','None');
#83=PERSON_AND_ORGANIZATION(#81,#82);
#84=PERSON_AND_ORGANIZATION_ROLE('classification_officer');
#85=CC_DESIGN_PERSON_AND_ORGANIZATION_ASSIGNMENT(#83,#84,(#66));
#86=COORDINATED_UNIVERSAL_TIME_OFFSET(8,$,.EXACT.);
#87=CALENDAR_DATE(1996,29,5);
#88=LOCAL_TIME(12,0,0.0,#86);
#89=DATE_AND_TIME(#87,#88);
#90=DATE_TIME_ROLE('classification_date');
#91=CC_DESIGN_DATE_AND_TIME_ASSIGNMENT(#89,#90,(#66));
#92=DESIGN_CONTEXT('Design Context',#29,'design');
#93=PRODUCT_DEFINITION('None','None',#41,#92);
#94=PERSON('7','Creator','Joe',$,$,$);
#95=ORGANIZATION($,'None','None');
#96=PERSON_AND_ORGANIZATION(#94,#95);
#97=PERSON_AND_ORGANIZATION_ROLE('creator');
#98=CC_DESIGN_PERSON_AND_ORGANIZATION_ASSIGNMENT(#96,#97,(#93));
#99=COORDINATED_UNIVERSAL_TIME_OFFSET(8,$,.EXACT.);
#100=CALENDAR_DATE(1996,29,5);
#101=LOCAL_TIME(12,0,0.0,#99);
#102=DATE_AND_TIME(#100,#101);
#103=DATE_TIME_ROLE('creation_date');
#104=CC_DESIGN_DATE_AND_TIME_ASSIGNMENT(#102,#103,(#93));
#105=APPROVAL_STATUS('approved');
#106=APPROVAL(#105,'None');
#107=PERSON('8','Approver','Joe',$,$,$);
#108=ORGANIZATION($,'None','None');
#109=PERSON_AND_ORGANIZATION(#107,#108);
#110=APPROVAL_ROLE('approver');
#111=APPROVAL_PERSON_ORGANIZATION(#109,#106,#110);
#112=COORDINATED_UNIVERSAL_TIME_OFFSET(8,$,.EXACT.);
#113=CALENDAR_DATE(1996,29,5);
#114=LOCAL_TIME(12,0,0.0,#112);
#115=DATE_AND_TIME(#113,#114);
#116=APPROVAL_DATE_TIME(#115,#106);
#117=CC_DESIGN_APPROVAL(#106,(#93));
#118=CARTESIAN_POINT('NONE',(0.0,0.0,0.0));
#119=DIRECTION('NONE',(0.0,0.0,1.0));
#120=DIRECTION('NONE',(1.0,0.0,0.0));
#121=AXIS2_PLACEMENT_3D('NONE',#118,#119,#120);
#122=SHAPE_REPRESENTATION('SR1',(#121),#28);
#123=PRODUCT_DEFINITION_SHAPE('PDS1','Test Part',#93);
#124=SHAPE_DEFINITION_REPRESENTATION(#123,#122);
#125=CARTESIAN_POINT('',(0.0,1.776357E-015,31.999999999999993));
#126=DIRECTION('',(0.0,6.123032E-017,1.0));
#127=DIRECTION('',(-1.0,0.0,0.0));
#128=AXIS2_PLACEMENT_3D('',#125,#126,#127);
#129=CYLINDRICAL_SURFACE('',#128,31.0);
#130=CARTESIAN_POINT('',(-31.000000000000004,2.664535E-015,40.499999999999993));
#131=VERTEX_POINT('',#130);
#132=CARTESIAN_POINT('',(-31.000000000000004,1.776357E-015,23.500000000000007));
#133=VERTEX_POINT('',#132);
#134=CARTESIAN_POINT('',(-31.0,2.296815E-015,40.499999999999993));
#135=DIRECTION('',(0.0,0.0,-1.0));
#136=VECTOR('',#135,16.999999999999986);
#137=LINE('',#134,#136);
#138=EDGE_CURVE('',#131,#133,#137,.T.);
#139=ORIENTED_EDGE('',*,*,#138,.F.);
#140=CARTESIAN_POINT('',(31.0,6.093094E-015,40.499999999999993));
#141=VERTEX_POINT('',#140);
#142=CARTESIAN_POINT('',(0.0,2.664535E-015,40.499999999999993));
#143=DIRECTION('',(0.0,0.0,1.0));
#144=DIRECTION('',(-1.0,0.0,0.0));
#145=AXIS2_PLACEMENT_3D('',#142,#143,#144);
#146=CIRCLE('',#145,31.0);
#147=EDGE_CURVE('',#141,#131,#146,.T.);
#148=ORIENTED_EDGE('',*,*,#147,.F.);
#149=CARTESIAN_POINT('',(31.0,5.052179E-015,23.500000000000007));
#150=VERTEX_POINT('',#149);
#151=CARTESIAN_POINT('',(31.0,6.093094E-015,40.499999999999993));
#152=DIRECTION('',(0.0,0.0,-1.0));
#153=VECTOR('',#152,16.999999999999986);
#154=LINE('',#151,#153);
#155=EDGE_CURVE('',#141,#150,#154,.T.);
#156=ORIENTED_EDGE('',*,*,#155,.T.);
#157=CARTESIAN_POINT('',(0.0,1.776357E-015,23.500000000000007));
#158=DIRECTION('',(0.0,0.0,1.0));
#159=DIRECTION('',(-1.0,0.0,0.0));
#160=AXIS2_PLACEMENT_3D('',#157,#158,#159);
#161=CIRCLE('',#160,31.0);
#162=EDGE_CURVE('',#150,#133,#161,.T.);
#163=ORIENTED_EDGE('',*,*,#162,.T.);
#164=EDGE_LOOP('',(#139,#148,#156,#163));
#165=FACE_OUTER_BOUND('',#164,.T.);
#166=ADVANCED_FACE('',(#165),#129,.T.);
#167=CARTESIAN_POINT('',(0.0,8.881784E-016,19.500071885850694));
#168=DIRECTION('',(0.0,6.123032E-017,1.0));
#169=DIRECTION('',(-1.0,0.0,0.0));
#170=AXIS2_PLACEMENT_3D('',#167,#168,#169);
#171=CYLINDRICAL_SURFACE('',#170,14.999598524305572);
#172=CARTESIAN_POINT('',(-14.999598524305576,1.776357E-015,23.500000000000007));
#173=VERTEX_POINT('',#172);
#174=CARTESIAN_POINT('',(-14.999598524305576,8.881784E-016,15.500143771701381));
#175=VERTEX_POINT('',#174);
#176=CARTESIAN_POINT('',(-14.999598524305572,1.133095E-015,23.500000000000007));
#177=DIRECTION('',(0.0,0.0,-1.0));
#178=VECTOR('',#177,7.999856228298626);
#179=LINE('',#176,#178);
#180=EDGE_CURVE('',#173,#175,#179,.T.);
#181=ORIENTED_EDGE('',*,*,#180,.F.);
#182=CARTESIAN_POINT('',(14.999598524305572,2.969956E-015,23.500000000000007));
#183=VERTEX_POINT('',#182);
#184=CARTESIAN_POINT('',(0.0,1.776357E-015,23.500000000000007));
#185=DIRECTION('',(0.0,0.0,1.0));
#186=DIRECTION('',(-1.0,0.0,0.0));
#187=AXIS2_PLACEMENT_3D('',#184,#185,#186);
#188=CIRCLE('',#187,14.999598524305572);
#189=EDGE_CURVE('',#183,#173,#188,.T.);
#190=ORIENTED_EDGE('',*,*,#189,.F.);
#191=CARTESIAN_POINT('',(14.999598524305572,2.480122E-015,15.500143771701381));
#192=VERTEX_POINT('',#191);
#193=CARTESIAN_POINT('',(14.999598524305572,2.969956E-015,23.500000000000007));
#194=DIRECTION('',(0.0,0.0,-1.0));
#195=VECTOR('',#194,7.999856228298626);
#196=LINE('',#193,#195);
#197=EDGE_CURVE('',#183,#192,#196,.T.);
#198=ORIENTED_EDGE('',*,*,#197,.T.);
#199=CARTESIAN_POINT('',(0.0,8.881784E-016,15.500143771701381));
#200=DIRECTION('',(0.0,0.0,1.0));
#201=DIRECTION('',(-1.0,0.0,0.0));
#202=AXIS2_PLACEMENT_3D('',#199,#200,#201);
#203=CIRCLE('',#202,14.999598524305572);
#204=EDGE_CURVE('',#192,#175,#203,.T.);
#205=ORIENTED_EDGE('',*,*,#204,.T.);
#206=EDGE_LOOP('',(#181,#190,#198,#205));
#207=FACE_OUTER_BOUND('',#206,.T.);
#208=ADVANCED_FACE('',(#207),#171,.T.);
#209=CARTESIAN_POINT('',(0.0,8.881784E-016,10.500276692708333));
#210=DIRECTION('',(0.0,6.123032E-017,1.0));
#211=DIRECTION('',(-1.0,0.0,0.0));
#212=AXIS2_PLACEMENT_3D('',#209,#210,#211);
#213=CYLINDRICAL_SURFACE('',#212,10.999999999999996);
#214=CARTESIAN_POINT('',(-11.0,8.881784E-016,15.500143771701381));
#215=VERTEX_POINT('',#214);
#216=CARTESIAN_POINT('',(-11.0,0.0,5.500409613715284));
#217=VERTEX_POINT('',#216);
#218=CARTESIAN_POINT('',(-10.999999999999996,1.194322E-015,15.500143771701381));
#219=DIRECTION('',(0.0,0.0,-1.0));
#220=VECTOR('',#219,9.999734157986097);
#221=LINE('',#218,#220);
#222=EDGE_CURVE('',#215,#217,#221,.T.);
#223=ORIENTED_EDGE('',*,*,#222,.F.);
#224=CARTESIAN_POINT('',(10.999999999999996,2.541389E-015,15.500143771701381));
#225=VERTEX_POINT('',#224);
#226=CARTESIAN_POINT('',(0.0,8.881784E-016,15.500143771701381));
#227=DIRECTION('',(0.0,0.0,1.0));
#228=DIRECTION('',(-1.0,0.0,0.0));
#229=AXIS2_PLACEMENT_3D('',#226,#227,#228);
#230=CIRCLE('',#229,10.999999999999998);
#231=EDGE_CURVE('',#225,#215,#230,.T.);
#232=ORIENTED_EDGE('',*,*,#231,.F.);
#233=CARTESIAN_POINT('',(11.0,1.377696E-015,5.500409613715282));
#234=VERTEX_POINT('',#233);
#235=CARTESIAN_POINT('',(10.999999999999996,2.541389E-015,15.500143771701381));
#236=DIRECTION('',(0.0,0.0,-1.0));
#237=VECTOR('',#236,9.999734157986097);
#238=LINE('',#235,#237);
#239=EDGE_CURVE('',#225,#234,#238,.T.);
#240=ORIENTED_EDGE('',*,*,#239,.T.);
#241=CARTESIAN_POINT('',(0.0,0.0,5.500409613715284));
#242=DIRECTION('',(0.0,0.0,1.0));
#243=DIRECTION('',(-1.0,0.0,0.0));
#244=AXIS2_PLACEMENT_3D('',#241,#242,#243);
#245=CIRCLE('',#244,10.999999999999996);
#246=EDGE_CURVE('',#234,#217,#245,.T.);
#247=ORIENTED_EDGE('',*,*,#246,.T.);
#248=EDGE_LOOP('',(#223,#232,#240,#247));
#249=FACE_OUTER_BOUND('',#248,.T.);
#250=ADVANCED_FACE('',(#249),#213,.T.);
#251=CARTESIAN_POINT('',(0.0,0.0,5.00018174913194));
#252=DIRECTION('',(0.0,6.123032E-017,1.0));
#253=DIRECTION('',(-1.0,0.0,0.0));
#254=AXIS2_PLACEMENT_3D('',#251,#252,#253);
#255=CONICAL_SURFACE('',#254,10.500116644965271,44.980263252756743);
#256=CARTESIAN_POINT('',(-10.000233289930549,0.0,4.499953884548603));
#257=VERTEX_POINT('',#256);
#258=CARTESIAN_POINT('',(-11.0,3.062911E-017,5.500409613715283));
#259=DIRECTION('',(0.706863161300843,-4.331128E-017,-0.707350317166663));
#260=VECTOR('',#259,1.414370934580291);
#261=LINE('',#258,#260);
#262=EDGE_CURVE('',#217,#257,#261,.T.);
#263=ORIENTED_EDGE('',*,*,#262,.F.);
#264=ORIENTED_EDGE('',*,*,#246,.F.);
#265=CARTESIAN_POINT('',(10.000233289930547,1.194006E-015,4.499953884548603));
#266=VERTEX_POINT('',#265);
#267=CARTESIAN_POINT('',(11.0,1.377696E-015,5.500409613715282));
#268=DIRECTION('',(-0.706863161300843,-1.298742E-016,-0.707350317166663));
#269=VECTOR('',#268,1.414370934580292);
#270=LINE('',#267,#269);
#271=EDGE_CURVE('',#234,#266,#270,.T.);
#272=ORIENTED_EDGE('',*,*,#271,.T.);
#273=CARTESIAN_POINT('',(0.0,0.0,4.499953884548603));
#274=DIRECTION('',(0.0,0.0,1.0));
#275=DIRECTION('',(-1.0,0.0,0.0));
#276=AXIS2_PLACEMENT_3D('',#273,#274,#275);
#277=CIRCLE('',#276,10.000233289930547);
#278=EDGE_CURVE('',#266,#257,#277,.T.);
#279=ORIENTED_EDGE('',*,*,#278,.T.);
#280=EDGE_LOOP('',(#263,#264,#272,#279));
#281=FACE_OUTER_BOUND('',#280,.T.);
#282=ADVANCED_FACE('',(#281),#255,.T.);
#283=CARTESIAN_POINT('',(0.0,0.0,2.249976942274302));
#284=DIRECTION('',(0.0,6.123032E-017,1.0));
#285=DIRECTION('',(-1.0,0.0,0.0));
#286=AXIS2_PLACEMENT_3D('',#283,#284,#285);
#287=CYLINDRICAL_SURFACE('',#286,7.999853515625008);
#288=CARTESIAN_POINT('',(-7.999853515625009,0.0,4.499953884548603));
#289=VERTEX_POINT('',#288);
#290=CARTESIAN_POINT('',(-7.999853515625009,0.0,0.0));
#291=VERTEX_POINT('',#290);
#292=CARTESIAN_POINT('',(-7.999853515625008,1.377668E-016,4.499953884548603));
#293=DIRECTION('',(0.0,0.0,-1.0));
#294=VECTOR('',#293,4.499953884548603);
#295=LINE('',#292,#294);
#296=EDGE_CURVE('',#289,#291,#295,.T.);
#297=ORIENTED_EDGE('',*,*,#296,.F.);
#298=CARTESIAN_POINT('',(7.999853515625008,1.117434E-015,4.499953884548603));
#299=VERTEX_POINT('',#298);
#300=CARTESIAN_POINT('',(0.0,0.0,4.499953884548603));
#301=DIRECTION('',(0.0,0.0,1.0));
#302=DIRECTION('',(-1.0,0.0,0.0));
#303=AXIS2_PLACEMENT_3D('',#300,#301,#302);
#304=CIRCLE('',#303,7.999853515625008);
#305=EDGE_CURVE('',#299,#289,#304,.T.);
#306=ORIENTED_EDGE('',*,*,#305,.F.);
#307=CARTESIAN_POINT('',(7.999853515625008,8.419003E-016,0.0));
#308=VERTEX_POINT('',#307);
#309=CARTESIAN_POINT('',(7.999853515625008,1.117434E-015,4.499953884548603));
#310=DIRECTION('',(0.0,0.0,-1.0));
#311=VECTOR('',#310,4.499953884548603);
#312=LINE('',#309,#311);
#313=EDGE_CURVE('',#299,#308,#312,.T.);
#314=ORIENTED_EDGE('',*,*,#313,.T.);
#315=CARTESIAN_POINT('',(0.0,0.0,0.0));
#316=DIRECTION('',(0.0,0.0,1.0));
#317=DIRECTION('',(-1.0,0.0,0.0));
#318=AXIS2_PLACEMENT_3D('',#315,#316,#317);
#319=CIRCLE('',#318,7.999853515625008);
#320=EDGE_CURVE('',#308,#291,#319,.T.);
#321=ORIENTED_EDGE('',*,*,#320,.T.);
#322=EDGE_LOOP('',(#297,#306,#314,#321));
#323=FACE_OUTER_BOUND('',#322,.T.);
#324=ADVANCED_FACE('',(#323),#287,.T.);
#325=CARTESIAN_POINT('',(0.0,0.0,2.249976942274302));
#326=DIRECTION('',(0.0,6.123032E-017,1.0));
#327=DIRECTION('',(-1.0,0.0,0.0));
#328=AXIS2_PLACEMENT_3D('',#325,#326,#327);
#329=CYLINDRICAL_SURFACE('',#328,7.999853515625008);
#330=ORIENTED_EDGE('',*,*,#296,.T.);
#331=CARTESIAN_POINT('',(0.0,0.0,0.0));
#332=DIRECTION('',(0.0,0.0,1.0));
#333=DIRECTION('',(-1.0,0.0,0.0));
#334=AXIS2_PLACEMENT_3D('',#331,#332,#333);
#335=CIRCLE('',#334,7.999853515625008);
#336=EDGE_CURVE('',#291,#308,#335,.T.);
#337=ORIENTED_EDGE('',*,*,#336,.T.);
#338=ORIENTED_EDGE('',*,*,#313,.F.);
#339=CARTESIAN_POINT('',(0.0,0.0,4.499953884548603));
#340=DIRECTION('',(0.0,0.0,1.0));
#341=DIRECTION('',(-1.0,0.0,0.0));
#342=AXIS2_PLACEMENT_3D('',#339,#340,#341);
#343=CIRCLE('',#342,7.999853515625008);
#344=EDGE_CURVE('',#289,#299,#343,.T.);
#345=ORIENTED_EDGE('',*,*,#344,.F.);
#346=EDGE_LOOP('',(#330,#337,#338,#345));
#347=FACE_OUTER_BOUND('',#346,.T.);
#348=ADVANCED_FACE('',(#347),#329,.T.);
#349=CARTESIAN_POINT('',(-9.000043402777777,0.0,4.499953884548603));
#350=DIRECTION('',(0.0,0.0,-1.0));
#351=DIRECTION('',(0.0,1.0,0.0));
#352=AXIS2_PLACEMENT_3D('',#349,#350,#351);
#353=PLANE('',#352);
#354=CARTESIAN_POINT('',(0.0,0.0,4.499953884548603));
#355=DIRECTION('',(0.0,0.0,1.0));
#356=DIRECTION('',(-1.0,0.0,0.0));
#357=AXIS2_PLACEMENT_3D('',#354,#355,#356);
#358=CIRCLE('',#357,10.000233289930547);
#359=EDGE_CURVE('',#257,#266,#358,.T.);
#360=ORIENTED_EDGE('',*,*,#359,.F.);
#361=ORIENTED_EDGE('',*,*,#278,.F.);
#362=EDGE_LOOP('',(#360,#361));
#363=FACE_OUTER_BOUND('',#362,.T.);
#364=ORIENTED_EDGE('',*,*,#344,.T.);
#365=ORIENTED_EDGE('',*,*,#305,.T.);
#366=EDGE_LOOP('',(#364,#365));
#367=FACE_BOUND('',#366,.T.);
#368=ADVANCED_FACE('',(#363,#367),#353,.T.);
#369=CARTESIAN_POINT('',(0.0,0.0,5.00018174913194));
#370=DIRECTION('',(0.0,6.123032E-017,1.0));
#371=DIRECTION('',(-1.0,0.0,0.0));
#372=AXIS2_PLACEMENT_3D('',#369,#370,#371);
#373=CONICAL_SURFACE('',#372,10.500116644965271,44.980263252756743);
#374=ORIENTED_EDGE('',*,*,#262,.T.);
#375=ORIENTED_EDGE('',*,*,#359,.T.);
#376=ORIENTED_EDGE('',*,*,#271,.F.);
#377=CARTESIAN_POINT('',(0.0,0.0,5.500409613715284));
#378=DIRECTION('',(0.0,0.0,1.0));
#379=DIRECTION('',(-1.0,0.0,0.0));
#380=AXIS2_PLACEMENT_3D('',#377,#378,#379);
#381=CIRCLE('',#380,10.999999999999996);
#382=EDGE_CURVE('',#217,#234,#381,.T.);
#383=ORIENTED_EDGE('',*,*,#382,.F.);
#384=EDGE_LOOP('',(#374,#375,#376,#383));
#385=FACE_OUTER_BOUND('',#384,.T.);
#386=ADVANCED_FACE('',(#385),#373,.T.);
#387=CARTESIAN_POINT('',(0.0,8.881784E-016,10.500276692708333));
#388=DIRECTION('',(0.0,6.123032E-017,1.0));
#389=DIRECTION('',(-1.0,0.0,0.0));
#390=AXIS2_PLACEMENT_3D('',#387,#388,#389);
#391=CYLINDRICAL_SURFACE('',#390,10.999999999999996);
#392=ORIENTED_EDGE('',*,*,#222,.T.);
#393=ORIENTED_EDGE('',*,*,#382,.T.);
#394=ORIENTED_EDGE('',*,*,#239,.F.);
#395=CARTESIAN_POINT('',(0.0,8.881784E-016,15.500143771701381));
#396=DIRECTION('',(0.0,0.0,1.0));
#397=DIRECTION('',(-1.0,0.0,0.0));
#398=AXIS2_PLACEMENT_3D('',#395,#396,#397);
#399=CIRCLE('',#398,10.999999999999998);
#400=EDGE_CURVE('',#215,#225,#399,.T.);
#401=ORIENTED_EDGE('',*,*,#400,.F.);
#402=EDGE_LOOP('',(#392,#393,#394,#401));
#403=FACE_OUTER_BOUND('',#402,.T.);
#404=ADVANCED_FACE('',(#403),#391,.T.);
#405=CARTESIAN_POINT('',(-12.999799262152788,8.881784E-016,15.500143771701381));
#406=DIRECTION('',(0.0,0.0,-1.0));
#407=DIRECTION('',(0.0,1.0,0.0));
#408=AXIS2_PLACEMENT_3D('',#405,#406,#407);
#409=PLANE('',#408);
#410=CARTESIAN_POINT('',(0.0,8.881784E-016,15.500143771701381));
#411=DIRECTION('',(0.0,0.0,1.0));
#412=DIRECTION('',(-1.0,0.0,0.0));
#413=AXIS2_PLACEMENT_3D('',#410,#411,#412);
#414=CIRCLE('',#413,14.999598524305572);
#415=EDGE_CURVE('',#175,#192,#414,.T.);
#416=ORIENTED_EDGE('',*,*,#415,.F.);
#417=ORIENTED_EDGE('',*,*,#204,.F.);
#418=EDGE_LOOP('',(#416,#417));
#419=FACE_OUTER_BOUND('',#418,.T.);
#420=ORIENTED_EDGE('',*,*,#400,.T.);
#421=ORIENTED_EDGE('',*,*,#231,.T.);
#422=EDGE_LOOP('',(#420,#421));
#423=FACE_BOUND('',#422,.T.);
#424=ADVANCED_FACE('',(#419,#423),#409,.T.);
#425=CARTESIAN_POINT('',(0.0,8.881784E-016,19.500071885850694));
#426=DIRECTION('',(0.0,6.123032E-017,1.0));
#427=DIRECTION('',(-1.0,0.0,0.0));
#428=AXIS2_PLACEMENT_3D('',#425,#426,#427);
#429=CYLINDRICAL_SURFACE('',#428,14.999598524305572);
#430=ORIENTED_EDGE('',*,*,#180,.T.);
#431=ORIENTED_EDGE('',*,*,#415,.T.);
#432=ORIENTED_EDGE('',*,*,#197,.F.);
#433=CARTESIAN_POINT('',(0.0,1.776357E-015,23.500000000000007));
#434=DIRECTION('',(0.0,0.0,1.0));
#435=DIRECTION('',(-1.0,0.0,0.0));
#436=AXIS2_PLACEMENT_3D('',#433,#434,#435);
#437=CIRCLE('',#436,14.999598524305572);
#438=EDGE_CURVE('',#173,#183,#437,.T.);
#439=ORIENTED_EDGE('',*,*,#438,.F.);
#440=EDGE_LOOP('',(#430,#431,#432,#439));
#441=FACE_OUTER_BOUND('',#440,.T.);
#442=ADVANCED_FACE('',(#441),#429,.T.);
#443=CARTESIAN_POINT('',(-22.999799262152788,1.776357E-015,23.500000000000007));
#444=DIRECTION('',(0.0,0.0,-1.0));
#445=DIRECTION('',(0.0,1.0,0.0));
#446=AXIS2_PLACEMENT_3D('',#443,#444,#445);
#447=PLANE('',#446);
#448=CARTESIAN_POINT('',(0.0,1.776357E-015,23.500000000000007));
#449=DIRECTION('',(0.0,0.0,1.0));
#450=DIRECTION('',(-1.0,0.0,0.0));
#451=AXIS2_PLACEMENT_3D('',#448,#449,#450);
#452=CIRCLE('',#451,31.0);
#453=EDGE_CURVE('',#133,#150,#452,.T.);
#454=ORIENTED_EDGE('',*,*,#453,.F.);
#455=ORIENTED_EDGE('',*,*,#162,.F.);
#456=EDGE_LOOP('',(#454,#455));
#457=FACE_OUTER_BOUND('',#456,.T.);
#458=ORIENTED_EDGE('',*,*,#438,.T.);
#459=ORIENTED_EDGE('',*,*,#189,.T.);
#460=EDGE_LOOP('',(#458,#459));
#461=FACE_BOUND('',#460,.T.);
#462=ADVANCED_FACE('',(#457,#461),#447,.T.);
#463=CARTESIAN_POINT('',(0.0,1.776357E-015,31.999999999999993));
#464=DIRECTION('',(0.0,6.123032E-017,1.0));
#465=DIRECTION('',(-1.0,0.0,0.0));
#466=AXIS2_PLACEMENT_3D('',#463,#464,#465);
#467=CYLINDRICAL_SURFACE('',#466,31.0);
#468=ORIENTED_EDGE('',*,*,#138,.T.);
#469=ORIENTED_EDGE('',*,*,#453,.T.);
#470=ORIENTED_EDGE('',*,*,#155,.F.);
#471=CARTESIAN_POINT('',(0.0,2.664535E-015,40.499999999999993));
#472=DIRECTION('',(0.0,0.0,1.0));
#473=DIRECTION('',(-1.0,0.0,0.0));
#474=AXIS2_PLACEMENT_3D('',#471,#472,#473);
#475=CIRCLE('',#474,31.0);
#476=EDGE_CURVE('',#131,#141,#475,.T.);
#477=ORIENTED_EDGE('',*,*,#476,.F.);
#478=EDGE_LOOP('',(#468,#469,#470,#477));
#479=FACE_OUTER_BOUND('',#478,.T.);
#480=ADVANCED_FACE('',(#479),#467,.T.);
#481=CARTESIAN_POINT('',(-15.500000000000002,2.664535E-015,40.499999999999993));
#482=DIRECTION('',(0.0,0.0,1.0));
#483=DIRECTION('',(0.0,-1.0,0.0));
#484=AXIS2_PLACEMENT_3D('',#481,#482,#483);
#485=PLANE('',#484);
#486=ORIENTED_EDGE('',*,*,#476,.T.);
#487=ORIENTED_EDGE('',*,*,#147,.T.);
#488=EDGE_LOOP('',(#486,#487));
#489=FACE_OUTER_BOUND('',#488,.T.);
#490=ADVANCED_FACE('',(#489),#485,.T.);
#491=CARTESIAN_POINT('',(-3.99992675781251,0.0,0.0));
#492=DIRECTION('',(0.0,0.0,-1.0));
#493=DIRECTION('',(0.0,1.0,0.0));
#494=AXIS2_PLACEMENT_3D('',#491,#492,#493);
#495=PLANE('',#494);
#496=ORIENTED_EDGE('',*,*,#336,.F.);
#497=ORIENTED_EDGE('',*,*,#320,.F.);
#498=EDGE_LOOP('',(#496,#497));
#499=FACE_OUTER_BOUND('',#498,.T.);
#500=ADVANCED_FACE('',(#499),#495,.T.);
#501=CLOSED_SHELL('',(#166,#208,#250,#282,#324,#348,#368,#386,#404,#424,#442,#462,#480,#490,#500));
#502=MANIFOLD_SOLID_BREP('888E',#501);
#503=ADVANCED_BREP_SHAPE_REPRESENTATION('ABSR1',(#502),#28);
#504=SHAPE_REPRESENTATION_RELATIONSHIP('SRRPL1','',#503,#122);
ENDSEC;
END-ISO-10303-21;
