ISO-10303-21;
HEADER;
/****************************************************************
 * Generated by software with PDElib inside                    *
 * PDElib Version v51a, created Fri 09/10/2010                  *
 * ITI Transcendata (http://www.transcendata.com/)              *
 ****************************************************************/
FILE_DESCRIPTION((''),'2;1');
FILE_NAME('3d_31ASTA460MM6.stp','2012-10-03T09:31:16',(''),(''),'Mechanical Desktop 2011','Mechanical Desktop 2011',', , ');
FILE_SCHEMA(('CONFIG_CONTROL_DESIGN'));
ENDSEC;
DATA;
#10=(NAMED_UNIT(*)PLANE_ANGLE_UNIT()SI_UNIT($,.RADIAN.));
#11=DIMENSIONAL_EXPONENTS(0.0,0.0,0.0,0.0,0.0,0.0,0.0);
#12=PLANE_ANGLE_MEASURE_WITH_UNIT(PLANE_ANGLE_MEASURE(0.0174532925),#10);
#16=(CONVERSION_BASED_UNIT('DEGREE',#12)NAMED_UNIT(#11)PLANE_ANGLE_UNIT());
#20=(NAMED_UNIT(*)SI_UNIT($,.STERADIAN.)SOLID_ANGLE_UNIT());
#24=(LENGTH_UNIT()NAMED_UNIT(*)SI_UNIT(.MILLI.,.METRE.));
#26=UNCERTAINTY_MEASURE_WITH_UNIT(LENGTH_MEASURE(0.000001),#24,'DISTANCE_ACCURACY_VALUE','');
#28=(GEOMETRIC_REPRESENTATION_CONTEXT(3)GLOBAL_UNCERTAINTY_ASSIGNED_CONTEXT((#26))GLOBAL_UNIT_ASSIGNED_CONTEXT((#16,#20,#24))REPRESENTATION_CONTEXT('','3D'));
#29=APPLICATION_CONTEXT('CONFIGURATION CONTROLLED 3D DESIGNS OF MECHANICAL PARTS AND ASSEMBLIES');
#30=APPLICATION_PROTOCOL_DEFINITION('INTERNATIONAL STANDARD','config_control_design',1995,#29);
#31=MECHANICAL_CONTEXT('3D Mechanical Parts',#29,'mechanical');
#32=PRODUCT('Product','Product',' ',(#31));
#33=PRODUCT_RELATED_PRODUCT_CATEGORY('detail',$,(#32));
#34=PRODUCT_CATEGORY('part',$);
#35=PRODUCT_CATEGORY_RELATIONSHIP('None','None',#34,#33);
#36=PERSON('1','Design','Joe',$,$,$);
#37=ORGANIZATION($,'None','None');
#38=PERSON_AND_ORGANIZATION(#36,#37);
#39=PERSON_AND_ORGANIZATION_ROLE('design_owner');
#40=CC_DESIGN_PERSON_AND_ORGANIZATION_ASSIGNMENT(#38,#39,(#32));
#41=PRODUCT_DEFINITION_FORMATION_WITH_SPECIFIED_SOURCE('None','None',#32,.BOUGHT.);
#42=PERSON('2','Creator','Joe',$,$,$);
#43=ORGANIZATION($,'None','None');
#44=PERSON_AND_ORGANIZATION(#42,#43);
#45=PERSON_AND_ORGANIZATION_ROLE('creator');
#46=CC_DESIGN_PERSON_AND_ORGANIZATION_ASSIGNMENT(#44,#45,(#41));
#47=PERSON('3','Supplier','Joe',$,$,$);
#48=ORGANIZATION($,'None','None');
#49=PERSON_AND_ORGANIZATION(#47,#48);
#50=PERSON_AND_ORGANIZATION_ROLE('design_supplier');
#51=CC_DESIGN_PERSON_AND_ORGANIZATION_ASSIGNMENT(#49,#50,(#41));
#52=APPROVAL_STATUS('approved');
#53=APPROVAL(#52,'None');
#54=PERSON('4','Approver','Joe',$,$,$);
#55=ORGANIZATION($,'None','None');
#56=PERSON_AND_ORGANIZATION(#54,#55);
#57=APPROVAL_ROLE('approver');
#58=APPROVAL_PERSON_ORGANIZATION(#56,#53,#57);
#59=COORDINATED_UNIVERSAL_TIME_OFFSET(8,$,.EXACT.);
#60=CALENDAR_DATE(1996,29,5);
#61=LOCAL_TIME(12,0,0.0,#59);
#62=DATE_AND_TIME(#60,#61);
#63=APPROVAL_DATE_TIME(#62,#53);
#64=CC_DESIGN_APPROVAL(#53,(#41));
#65=SECURITY_CLASSIFICATION_LEVEL('unclassified');
#66=SECURITY_CLASSIFICATION('security','None',#65);
#67=CC_DESIGN_SECURITY_CLASSIFICATION(#66,(#41));
#68=APPROVAL_STATUS('approved');
#69=APPROVAL(#68,'None');
#70=PERSON('5','Approver','Joe',$,$,$);
#71=ORGANIZATION($,'None','None');
#72=PERSON_AND_ORGANIZATION(#70,#71);
#73=APPROVAL_ROLE('approver');
#74=APPROVAL_PERSON_ORGANIZATION(#72,#69,#73);
#75=COORDINATED_UNIVERSAL_TIME_OFFSET(8,$,.EXACT.);
#76=CALENDAR_DATE(1996,29,5);
#77=LOCAL_TIME(12,0,0.0,#75);
#78=DATE_AND_TIME(#76,#77);
#79=APPROVAL_DATE_TIME(#78,#69);
#80=CC_DESIGN_APPROVAL(#69,(#66));
#81=PERSON('6','Classifier','Joe',$,$,$);
#82=ORGANIZATION($,'None','None');
#83=PERSON_AND_ORGANIZATION(#81,#82);
#84=PERSON_AND_ORGANIZATION_ROLE('classification_officer');
#85=CC_DESIGN_PERSON_AND_ORGANIZATION_ASSIGNMENT(#83,#84,(#66));
#86=COORDINATED_UNIVERSAL_TIME_OFFSET(8,$,.EXACT.);
#87=CALENDAR_DATE(1996,29,5);
#88=LOCAL_TIME(12,0,0.0,#86);
#89=DATE_AND_TIME(#87,#88);
#90=DATE_TIME_ROLE('classification_date');
#91=CC_DESIGN_DATE_AND_TIME_ASSIGNMENT(#89,#90,(#66));
#92=DESIGN_CONTEXT('Design Context',#29,'design');
#93=PRODUCT_DEFINITION('None','None',#41,#92);
#94=PERSON('7','Creator','Joe',$,$,$);
#95=ORGANIZATION($,'None','None');
#96=PERSON_AND_ORGANIZATION(#94,#95);
#97=PERSON_AND_ORGANIZATION_ROLE('creator');
#98=CC_DESIGN_PERSON_AND_ORGANIZATION_ASSIGNMENT(#96,#97,(#93));
#99=COORDINATED_UNIVERSAL_TIME_OFFSET(8,$,.EXACT.);
#100=CALENDAR_DATE(1996,29,5);
#101=LOCAL_TIME(12,0,0.0,#99);
#102=DATE_AND_TIME(#100,#101);
#103=DATE_TIME_ROLE('creation_date');
#104=CC_DESIGN_DATE_AND_TIME_ASSIGNMENT(#102,#103,(#93));
#105=APPROVAL_STATUS('approved');
#106=APPROVAL(#105,'None');
#107=PERSON('8','Approver','Joe',$,$,$);
#108=ORGANIZATION($,'None','None');
#109=PERSON_AND_ORGANIZATION(#107,#108);
#110=APPROVAL_ROLE('approver');
#111=APPROVAL_PERSON_ORGANIZATION(#109,#106,#110);
#112=COORDINATED_UNIVERSAL_TIME_OFFSET(8,$,.EXACT.);
#113=CALENDAR_DATE(1996,29,5);
#114=LOCAL_TIME(12,0,0.0,#112);
#115=DATE_AND_TIME(#113,#114);
#116=APPROVAL_DATE_TIME(#115,#106);
#117=CC_DESIGN_APPROVAL(#106,(#93));
#118=CARTESIAN_POINT('NONE',(0.0,0.0,0.0));
#119=DIRECTION('NONE',(0.0,0.0,1.0));
#120=DIRECTION('NONE',(1.0,0.0,0.0));
#121=AXIS2_PLACEMENT_3D('NONE',#118,#119,#120);
#122=SHAPE_REPRESENTATION('SR1',(#121),#28);
#123=PRODUCT_DEFINITION_SHAPE('PDS1','Test Part',#93);
#124=SHAPE_DEFINITION_REPRESENTATION(#123,#122);
#125=CARTESIAN_POINT('',(0.0,455.99999999999994,0.0));
#126=DIRECTION('',(1.224606E-016,1.0,0.0));
#127=DIRECTION('',(-1.0,0.0,0.0));
#128=AXIS2_PLACEMENT_3D('',#125,#126,#127);
#129=CYLINDRICAL_SURFACE('',#128,2.9);
#130=CARTESIAN_POINT('',(-2.900000000000091,458.99999999999994,0.0));
#131=VERTEX_POINT('',#130);
#132=CARTESIAN_POINT('',(-2.900000000000091,451.99999999999994,0.0));
#133=VERTEX_POINT('',#132);
#134=CARTESIAN_POINT('',(-2.9,458.99999999999994,0.0));
#135=DIRECTION('',(0.0,-1.0,0.0));
#136=VECTOR('',#135,7.0);
#137=LINE('',#134,#136);
#138=EDGE_CURVE('',#131,#133,#137,.T.);
#139=ORIENTED_EDGE('',*,*,#138,.F.);
#140=CARTESIAN_POINT('',(2.9,458.99999999999994,0.0));
#141=VERTEX_POINT('',#140);
#142=CARTESIAN_POINT('',(0.0,458.99999999999994,0.0));
#143=DIRECTION('',(0.0,1.0,0.0));
#144=DIRECTION('',(1.0,0.0,0.0));
#145=AXIS2_PLACEMENT_3D('',#142,#143,#144);
#146=CIRCLE('',#145,2.9);
#147=EDGE_CURVE('',#141,#131,#146,.T.);
#148=ORIENTED_EDGE('',*,*,#147,.F.);
#149=CARTESIAN_POINT('',(2.9,451.99999999999994,-3.551358E-016));
#150=VERTEX_POINT('',#149);
#151=CARTESIAN_POINT('',(2.9,458.99999999999994,-3.551358E-016));
#152=DIRECTION('',(0.0,-1.0,0.0));
#153=VECTOR('',#152,7.0);
#154=LINE('',#151,#153);
#155=EDGE_CURVE('',#141,#150,#154,.T.);
#156=ORIENTED_EDGE('',*,*,#155,.T.);
#157=CARTESIAN_POINT('',(0.0,451.99999999999994,0.0));
#158=DIRECTION('',(0.0,-1.0,0.0));
#159=DIRECTION('',(-1.0,0.0,0.0));
#160=AXIS2_PLACEMENT_3D('',#157,#158,#159);
#161=CIRCLE('',#160,2.9);
#162=EDGE_CURVE('',#133,#150,#161,.T.);
#163=ORIENTED_EDGE('',*,*,#162,.F.);
#164=EDGE_LOOP('',(#139,#148,#156,#163));
#165=FACE_OUTER_BOUND('',#164,.T.);
#166=ADVANCED_FACE('',(#165),#129,.T.);
#167=CARTESIAN_POINT('',(0.0,459.49999999999994,0.0));
#168=DIRECTION('',(-1.224606E-016,-1.0,0.0));
#169=DIRECTION('',(1.0,0.0,0.0));
#170=AXIS2_PLACEMENT_3D('',#167,#168,#169);
#171=CONICAL_SURFACE('',#170,2.4,44.999999999999993);
#172=CARTESIAN_POINT('',(1.9,459.99999999999994,0.0));
#173=VERTEX_POINT('',#172);
#174=CARTESIAN_POINT('',(1.9,459.99999999999994,0.0));
#175=DIRECTION('',(0.707106781186547,-0.707106781186548,0.0));
#176=VECTOR('',#175,1.414213562373095);
#177=LINE('',#174,#176);
#178=EDGE_CURVE('',#173,#141,#177,.T.);
#179=ORIENTED_EDGE('',*,*,#178,.F.);
#180=CARTESIAN_POINT('',(-1.900000000000091,459.99999999999994,0.0));
#181=VERTEX_POINT('',#180);
#182=CARTESIAN_POINT('',(0.0,459.99999999999994,0.0));
#183=DIRECTION('',(0.0,-1.0,0.0));
#184=DIRECTION('',(1.0,0.0,0.0));
#185=AXIS2_PLACEMENT_3D('',#182,#183,#184);
#186=CIRCLE('',#185,1.9);
#187=EDGE_CURVE('',#173,#181,#186,.T.);
#188=ORIENTED_EDGE('',*,*,#187,.T.);
#189=CARTESIAN_POINT('',(-1.900000000000045,459.99999999999989,2.326752E-016));
#190=DIRECTION('',(-0.707106781186552,-0.707106781186543,8.659275E-017));
#191=VECTOR('',#190,1.414213562373023);
#192=LINE('',#189,#191);
#193=EDGE_CURVE('',#181,#131,#192,.T.);
#194=ORIENTED_EDGE('',*,*,#193,.T.);
#195=CARTESIAN_POINT('',(0.0,458.99999999999994,0.0));
#196=DIRECTION('',(0.0,1.0,0.0));
#197=DIRECTION('',(1.0,0.0,0.0));
#198=AXIS2_PLACEMENT_3D('',#195,#196,#197);
#199=CIRCLE('',#198,2.9);
#200=EDGE_CURVE('',#131,#141,#199,.T.);
#201=ORIENTED_EDGE('',*,*,#200,.T.);
#202=EDGE_LOOP('',(#179,#188,#194,#201));
#203=FACE_OUTER_BOUND('',#202,.T.);
#204=ADVANCED_FACE('',(#203),#171,.T.);
#205=CARTESIAN_POINT('',(0.0,459.49999999999994,0.0));
#206=DIRECTION('',(-1.224606E-016,-1.0,0.0));
#207=DIRECTION('',(1.0,0.0,0.0));
#208=AXIS2_PLACEMENT_3D('',#205,#206,#207);
#209=CONICAL_SURFACE('',#208,2.4,44.999999999999993);
#210=ORIENTED_EDGE('',*,*,#178,.T.);
#211=ORIENTED_EDGE('',*,*,#147,.T.);
#212=ORIENTED_EDGE('',*,*,#193,.F.);
#213=CARTESIAN_POINT('',(0.0,459.99999999999994,0.0));
#214=DIRECTION('',(0.0,-1.0,0.0));
#215=DIRECTION('',(1.0,0.0,0.0));
#216=AXIS2_PLACEMENT_3D('',#213,#214,#215);
#217=CIRCLE('',#216,1.9);
#218=EDGE_CURVE('',#181,#173,#217,.T.);
#219=ORIENTED_EDGE('',*,*,#218,.T.);
#220=EDGE_LOOP('',(#210,#211,#212,#219));
#221=FACE_OUTER_BOUND('',#220,.T.);
#222=ADVANCED_FACE('',(#221),#209,.T.);
#223=CARTESIAN_POINT('',(0.0,455.99999999999994,0.0));
#224=DIRECTION('',(1.224606E-016,1.0,0.0));
#225=DIRECTION('',(-1.0,0.0,0.0));
#226=AXIS2_PLACEMENT_3D('',#223,#224,#225);
#227=CYLINDRICAL_SURFACE('',#226,2.9);
#228=ORIENTED_EDGE('',*,*,#138,.T.);
#229=CARTESIAN_POINT('',(0.0,451.99999999999994,0.0));
#230=DIRECTION('',(0.0,-1.0,0.0));
#231=DIRECTION('',(-1.0,0.0,0.0));
#232=AXIS2_PLACEMENT_3D('',#229,#230,#231);
#233=CIRCLE('',#232,2.9);
#234=EDGE_CURVE('',#150,#133,#233,.T.);
#235=ORIENTED_EDGE('',*,*,#234,.F.);
#236=ORIENTED_EDGE('',*,*,#155,.F.);
#237=ORIENTED_EDGE('',*,*,#200,.F.);
#238=EDGE_LOOP('',(#228,#235,#236,#237));
#239=FACE_OUTER_BOUND('',#238,.T.);
#240=ADVANCED_FACE('',(#239),#227,.T.);
#241=CARTESIAN_POINT('',(0.0,459.99999999999994,0.0));
#242=DIRECTION('',(0.0,1.0,0.0));
#243=DIRECTION('',(-1.0,0.0,0.0));
#244=AXIS2_PLACEMENT_3D('',#241,#242,#243);
#245=PLANE('',#244);
#246=ORIENTED_EDGE('',*,*,#218,.F.);
#247=ORIENTED_EDGE('',*,*,#187,.F.);
#248=EDGE_LOOP('',(#246,#247));
#249=FACE_OUTER_BOUND('',#248,.T.);
#250=ADVANCED_FACE('',(#249),#245,.T.);
#251=CARTESIAN_POINT('',(0.0,451.99999999999994,0.0));
#252=DIRECTION('',(0.0,-1.0,0.0));
#253=DIRECTION('',(1.0,0.0,0.0));
#254=AXIS2_PLACEMENT_3D('',#251,#252,#253);
#255=PLANE('',#254);
#256=ORIENTED_EDGE('',*,*,#162,.T.);
#257=ORIENTED_EDGE('',*,*,#234,.T.);
#258=EDGE_LOOP('',(#256,#257));
#259=FACE_OUTER_BOUND('',#258,.T.);
#260=ADVANCED_FACE('',(#259),#255,.T.);
#261=CLOSED_SHELL('',(#166,#204,#222,#240,#250,#260));
#262=MANIFOLD_SOLID_BREP('7ADE',#261);
#263=CARTESIAN_POINT('',(0.0,4.0,0.0));
#264=DIRECTION('',(0.0,-1.0,0.0));
#265=DIRECTION('',(1.0,0.0,0.0));
#266=AXIS2_PLACEMENT_3D('',#263,#264,#265);
#267=CYLINDRICAL_SURFACE('',#266,2.9);
#268=CARTESIAN_POINT('',(2.9,1.0,3.551358E-016));
#269=VERTEX_POINT('',#268);
#270=CARTESIAN_POINT('',(2.9,8.0,0.0));
#271=VERTEX_POINT('',#270);
#272=CARTESIAN_POINT('',(2.9,1.0,0.0));
#273=DIRECTION('',(0.0,1.0,0.0));
#274=VECTOR('',#273,7.0);
#275=LINE('',#272,#274);
#276=EDGE_CURVE('',#269,#271,#275,.T.);
#277=ORIENTED_EDGE('',*,*,#276,.F.);
#278=CARTESIAN_POINT('',(-2.9,1.0,0.0));
#279=VERTEX_POINT('',#278);
#280=CARTESIAN_POINT('',(0.0,1.0,0.0));
#281=DIRECTION('',(0.0,-1.0,0.0));
#282=DIRECTION('',(-1.0,0.0,0.0));
#283=AXIS2_PLACEMENT_3D('',#280,#281,#282);
#284=CIRCLE('',#283,2.9);
#285=EDGE_CURVE('',#279,#269,#284,.T.);
#286=ORIENTED_EDGE('',*,*,#285,.F.);
#287=CARTESIAN_POINT('',(-2.9,8.0,-3.551358E-016));
#288=VERTEX_POINT('',#287);
#289=CARTESIAN_POINT('',(-2.9,1.0,-3.551358E-016));
#290=DIRECTION('',(0.0,1.0,0.0));
#291=VECTOR('',#290,7.0);
#292=LINE('',#289,#291);
#293=EDGE_CURVE('',#279,#288,#292,.T.);
#294=ORIENTED_EDGE('',*,*,#293,.T.);
#295=CARTESIAN_POINT('',(0.0,8.0,0.0));
#296=DIRECTION('',(0.0,1.0,0.0));
#297=DIRECTION('',(1.0,0.0,0.0));
#298=AXIS2_PLACEMENT_3D('',#295,#296,#297);
#299=CIRCLE('',#298,2.9);
#300=EDGE_CURVE('',#271,#288,#299,.T.);
#301=ORIENTED_EDGE('',*,*,#300,.F.);
#302=EDGE_LOOP('',(#277,#286,#294,#301));
#303=FACE_OUTER_BOUND('',#302,.T.);
#304=ADVANCED_FACE('',(#303),#267,.T.);
#305=CARTESIAN_POINT('',(0.0,0.5,0.0));
#306=DIRECTION('',(0.0,1.0,0.0));
#307=DIRECTION('',(-1.0,0.0,0.0));
#308=AXIS2_PLACEMENT_3D('',#305,#306,#307);
#309=CONICAL_SURFACE('',#308,2.4,44.999999999999993);
#310=CARTESIAN_POINT('',(-1.9,1.110223E-016,0.0));
#311=VERTEX_POINT('',#310);
#312=CARTESIAN_POINT('',(-1.9,1.110223E-016,0.0));
#313=DIRECTION('',(-0.707106781186548,0.707106781186547,0.0));
#314=VECTOR('',#313,1.414213562373095);
#315=LINE('',#312,#314);
#316=EDGE_CURVE('',#311,#279,#315,.T.);
#317=ORIENTED_EDGE('',*,*,#316,.F.);
#318=CARTESIAN_POINT('',(1.9,0.0,-2.326752E-016));
#319=VERTEX_POINT('',#318);
#320=CARTESIAN_POINT('',(0.0,0.0,0.0));
#321=DIRECTION('',(0.0,1.0,0.0));
#322=DIRECTION('',(-1.0,0.0,0.0));
#323=AXIS2_PLACEMENT_3D('',#320,#321,#322);
#324=CIRCLE('',#323,1.9);
#325=EDGE_CURVE('',#311,#319,#324,.T.);
#326=ORIENTED_EDGE('',*,*,#325,.T.);
#327=CARTESIAN_POINT('',(1.9,1.110223E-016,2.326752E-016));
#328=DIRECTION('',(0.707106781186548,0.707106781186547,8.659275E-017));
#329=VECTOR('',#328,1.414213562373095);
#330=LINE('',#327,#329);
#331=EDGE_CURVE('',#319,#269,#330,.T.);
#332=ORIENTED_EDGE('',*,*,#331,.T.);
#333=CARTESIAN_POINT('',(0.0,1.0,0.0));
#334=DIRECTION('',(0.0,-1.0,0.0));
#335=DIRECTION('',(-1.0,0.0,0.0));
#336=AXIS2_PLACEMENT_3D('',#333,#334,#335);
#337=CIRCLE('',#336,2.9);
#338=EDGE_CURVE('',#269,#279,#337,.T.);
#339=ORIENTED_EDGE('',*,*,#338,.T.);
#340=EDGE_LOOP('',(#317,#326,#332,#339));
#341=FACE_OUTER_BOUND('',#340,.T.);
#342=ADVANCED_FACE('',(#341),#309,.T.);
#343=CARTESIAN_POINT('',(0.0,0.5,0.0));
#344=DIRECTION('',(0.0,1.0,0.0));
#345=DIRECTION('',(-1.0,0.0,0.0));
#346=AXIS2_PLACEMENT_3D('',#343,#344,#345);
#347=CONICAL_SURFACE('',#346,2.4,44.999999999999993);
#348=ORIENTED_EDGE('',*,*,#316,.T.);
#349=ORIENTED_EDGE('',*,*,#285,.T.);
#350=ORIENTED_EDGE('',*,*,#331,.F.);
#351=CARTESIAN_POINT('',(0.0,0.0,0.0));
#352=DIRECTION('',(0.0,1.0,0.0));
#353=DIRECTION('',(-1.0,0.0,0.0));
#354=AXIS2_PLACEMENT_3D('',#351,#352,#353);
#355=CIRCLE('',#354,1.9);
#356=EDGE_CURVE('',#319,#311,#355,.T.);
#357=ORIENTED_EDGE('',*,*,#356,.T.);
#358=EDGE_LOOP('',(#348,#349,#350,#357));
#359=FACE_OUTER_BOUND('',#358,.T.);
#360=ADVANCED_FACE('',(#359),#347,.T.);
#361=CARTESIAN_POINT('',(0.0,4.0,0.0));
#362=DIRECTION('',(0.0,-1.0,0.0));
#363=DIRECTION('',(1.0,0.0,0.0));
#364=AXIS2_PLACEMENT_3D('',#361,#362,#363);
#365=CYLINDRICAL_SURFACE('',#364,2.9);
#366=ORIENTED_EDGE('',*,*,#276,.T.);
#367=CARTESIAN_POINT('',(0.0,8.0,0.0));
#368=DIRECTION('',(0.0,1.0,0.0));
#369=DIRECTION('',(1.0,0.0,0.0));
#370=AXIS2_PLACEMENT_3D('',#367,#368,#369);
#371=CIRCLE('',#370,2.9);
#372=EDGE_CURVE('',#288,#271,#371,.T.);
#373=ORIENTED_EDGE('',*,*,#372,.F.);
#374=ORIENTED_EDGE('',*,*,#293,.F.);
#375=ORIENTED_EDGE('',*,*,#338,.F.);
#376=EDGE_LOOP('',(#366,#373,#374,#375));
#377=FACE_OUTER_BOUND('',#376,.T.);
#378=ADVANCED_FACE('',(#377),#365,.T.);
#379=CARTESIAN_POINT('',(0.0,0.0,0.0));
#380=DIRECTION('',(0.0,-1.0,0.0));
#381=DIRECTION('',(1.0,0.0,0.0));
#382=AXIS2_PLACEMENT_3D('',#379,#380,#381);
#383=PLANE('',#382);
#384=ORIENTED_EDGE('',*,*,#356,.F.);
#385=ORIENTED_EDGE('',*,*,#325,.F.);
#386=EDGE_LOOP('',(#384,#385));
#387=FACE_OUTER_BOUND('',#386,.T.);
#388=ADVANCED_FACE('',(#387),#383,.T.);
#389=CARTESIAN_POINT('',(0.0,8.0,0.0));
#390=DIRECTION('',(0.0,1.0,0.0));
#391=DIRECTION('',(-1.0,0.0,0.0));
#392=AXIS2_PLACEMENT_3D('',#389,#390,#391);
#393=PLANE('',#392);
#394=ORIENTED_EDGE('',*,*,#300,.T.);
#395=ORIENTED_EDGE('',*,*,#372,.T.);
#396=EDGE_LOOP('',(#394,#395));
#397=FACE_OUTER_BOUND('',#396,.T.);
#398=ADVANCED_FACE('',(#397),#393,.T.);
#399=CLOSED_SHELL('',(#304,#342,#360,#378,#388,#398));
#400=MANIFOLD_SOLID_BREP('7ADD',#399);
#401=CARTESIAN_POINT('',(0.0,230.0,2.842171E-014));
#402=DIRECTION('',(0.0,-1.0,0.0));
#403=DIRECTION('',(1.0,0.0,0.0));
#404=AXIS2_PLACEMENT_3D('',#401,#402,#403);
#405=CYLINDRICAL_SURFACE('',#404,3.0);
#406=CARTESIAN_POINT('',(3.0,8.0,2.842171E-014));
#407=VERTEX_POINT('',#406);
#408=CARTESIAN_POINT('',(3.0,452.0,2.842171E-014));
#409=VERTEX_POINT('',#408);
#410=CARTESIAN_POINT('',(3.0,8.0,2.842171E-014));
#411=DIRECTION('',(0.0,1.0,0.0));
#412=VECTOR('',#411,444.0);
#413=LINE('',#410,#412);
#414=EDGE_CURVE('',#407,#409,#413,.T.);
#415=ORIENTED_EDGE('',*,*,#414,.F.);
#416=CARTESIAN_POINT('',(-3.0,8.0,2.805433E-014));
#417=VERTEX_POINT('',#416);
#418=CARTESIAN_POINT('',(0.0,8.0,2.842171E-014));
#419=DIRECTION('',(0.0,-1.0,0.0));
#420=DIRECTION('',(1.0,0.0,0.0));
#421=AXIS2_PLACEMENT_3D('',#418,#419,#420);
#422=CIRCLE('',#421,3.0);
#423=EDGE_CURVE('',#417,#407,#422,.T.);
#424=ORIENTED_EDGE('',*,*,#423,.F.);
#425=CARTESIAN_POINT('',(-3.0,452.0,2.805433E-014));
#426=VERTEX_POINT('',#425);
#427=CARTESIAN_POINT('',(-3.0,8.0,2.805433E-014));
#428=DIRECTION('',(0.0,1.0,0.0));
#429=VECTOR('',#428,444.0);
#430=LINE('',#427,#429);
#431=EDGE_CURVE('',#417,#426,#430,.T.);
#432=ORIENTED_EDGE('',*,*,#431,.T.);
#433=CARTESIAN_POINT('',(0.0,452.0,2.842171E-014));
#434=DIRECTION('',(0.0,1.0,0.0));
#435=DIRECTION('',(1.0,0.0,0.0));
#436=AXIS2_PLACEMENT_3D('',#433,#434,#435);
#437=CIRCLE('',#436,3.0);
#438=EDGE_CURVE('',#409,#426,#437,.T.);
#439=ORIENTED_EDGE('',*,*,#438,.F.);
#440=EDGE_LOOP('',(#415,#424,#432,#439));
#441=FACE_OUTER_BOUND('',#440,.T.);
#442=ADVANCED_FACE('',(#441),#405,.T.);
#443=CARTESIAN_POINT('',(0.0,230.0,2.842171E-014));
#444=DIRECTION('',(0.0,-1.0,0.0));
#445=DIRECTION('',(1.0,0.0,0.0));
#446=AXIS2_PLACEMENT_3D('',#443,#444,#445);
#447=CYLINDRICAL_SURFACE('',#446,3.0);
#448=ORIENTED_EDGE('',*,*,#414,.T.);
#449=CARTESIAN_POINT('',(0.0,452.0,2.842171E-014));
#450=DIRECTION('',(0.0,1.0,0.0));
#451=DIRECTION('',(1.0,0.0,0.0));
#452=AXIS2_PLACEMENT_3D('',#449,#450,#451);
#453=CIRCLE('',#452,3.0);
#454=EDGE_CURVE('',#426,#409,#453,.T.);
#455=ORIENTED_EDGE('',*,*,#454,.F.);
#456=ORIENTED_EDGE('',*,*,#431,.F.);
#457=CARTESIAN_POINT('',(0.0,8.0,2.842171E-014));
#458=DIRECTION('',(0.0,-1.0,0.0));
#459=DIRECTION('',(1.0,0.0,0.0));
#460=AXIS2_PLACEMENT_3D('',#457,#458,#459);
#461=CIRCLE('',#460,3.0);
#462=EDGE_CURVE('',#407,#417,#461,.T.);
#463=ORIENTED_EDGE('',*,*,#462,.F.);
#464=EDGE_LOOP('',(#448,#455,#456,#463));
#465=FACE_OUTER_BOUND('',#464,.T.);
#466=ADVANCED_FACE('',(#465),#447,.T.);
#467=CARTESIAN_POINT('',(0.0,452.0,2.842171E-014));
#468=DIRECTION('',(0.0,1.0,0.0));
#469=DIRECTION('',(-1.0,0.0,0.0));
#470=AXIS2_PLACEMENT_3D('',#467,#468,#469);
#471=PLANE('',#470);
#472=ORIENTED_EDGE('',*,*,#438,.T.);
#473=ORIENTED_EDGE('',*,*,#454,.T.);
#474=EDGE_LOOP('',(#472,#473));
#475=FACE_OUTER_BOUND('',#474,.T.);
#476=ADVANCED_FACE('',(#475),#471,.T.);
#477=CARTESIAN_POINT('',(0.0,8.0,2.842171E-014));
#478=DIRECTION('',(0.0,-1.0,0.0));
#479=DIRECTION('',(1.0,0.0,0.0));
#480=AXIS2_PLACEMENT_3D('',#477,#478,#479);
#481=PLANE('',#480);
#482=ORIENTED_EDGE('',*,*,#462,.T.);
#483=ORIENTED_EDGE('',*,*,#423,.T.);
#484=EDGE_LOOP('',(#482,#483));
#485=FACE_OUTER_BOUND('',#484,.T.);
#486=ADVANCED_FACE('',(#485),#481,.T.);
#487=CLOSED_SHELL('',(#442,#466,#476,#486));
#488=MANIFOLD_SOLID_BREP('7ADC',#487);
#489=ADVANCED_BREP_SHAPE_REPRESENTATION('ABSR1',(#262,#400,#488),#28);
#490=SHAPE_REPRESENTATION_RELATIONSHIP('SRRPL1','',#489,#122);
ENDSEC;
END-ISO-10303-21;
