ISO-10303-21;
HEADER;
/****************************************************************
 * Generated by software with PDElib inside                    *
 * PDElib Version v51a, created Fri 09/10/2010                  *
 * ITI Transcendata (http://www.transcendata.com/)              *
 ****************************************************************/
FILE_DESCRIPTION((''),'2;1');
FILE_NAME('3d_31ASTA460MM4.stp','2012-10-03T09:31:16',(''),(''),'Mechanical Desktop 2011','Mechanical Desktop 2011',', , ');
FILE_SCHEMA(('CONFIG_CONTROL_DESIGN'));
ENDSEC;
DATA;
#10=(NAMED_UNIT(*)PLANE_ANGLE_UNIT()SI_UNIT($,.RADIAN.));
#11=DIMENSIONAL_EXPONENTS(0.0,0.0,0.0,0.0,0.0,0.0,0.0);
#12=PLANE_ANGLE_MEASURE_WITH_UNIT(PLANE_ANGLE_MEASURE(0.0174532925),#10);
#16=(CONVERSION_BASED_UNIT('DEGREE',#12)NAMED_UNIT(#11)PLANE_ANGLE_UNIT());
#20=(NAMED_UNIT(*)SI_UNIT($,.STERADIAN.)SOLID_ANGLE_UNIT());
#24=(LENGTH_UNIT()NAMED_UNIT(*)SI_UNIT(.MILLI.,.METRE.));
#26=UNCERTAINTY_MEASURE_WITH_UNIT(LENGTH_MEASURE(0.000001),#24,'DISTANCE_ACCURACY_VALUE','');
#28=(GEOMETRIC_REPRESENTATION_CONTEXT(3)GLOBAL_UNCERTAINTY_ASSIGNED_CONTEXT((#26))GLOBAL_UNIT_ASSIGNED_CONTEXT((#16,#20,#24))REPRESENTATION_CONTEXT('','3D'));
#29=APPLICATION_CONTEXT('CONFIGURATION CONTROLLED 3D DESIGNS OF MECHANICAL PARTS AND ASSEMBLIES');
#30=APPLICATION_PROTOCOL_DEFINITION('INTERNATIONAL STANDARD','config_control_design',1995,#29);
#31=MECHANICAL_CONTEXT('3D Mechanical Parts',#29,'mechanical');
#32=PRODUCT('Product','Product',' ',(#31));
#33=PRODUCT_RELATED_PRODUCT_CATEGORY('detail',$,(#32));
#34=PRODUCT_CATEGORY('part',$);
#35=PRODUCT_CATEGORY_RELATIONSHIP('None','None',#34,#33);
#36=PERSON('1','Design','Joe',$,$,$);
#37=ORGANIZATION($,'None','None');
#38=PERSON_AND_ORGANIZATION(#36,#37);
#39=PERSON_AND_ORGANIZATION_ROLE('design_owner');
#40=CC_DESIGN_PERSON_AND_ORGANIZATION_ASSIGNMENT(#38,#39,(#32));
#41=PRODUCT_DEFINITION_FORMATION_WITH_SPECIFIED_SOURCE('None','None',#32,.BOUGHT.);
#42=PERSON('2','Creator','Joe',$,$,$);
#43=ORGANIZATION($,'None','None');
#44=PERSON_AND_ORGANIZATION(#42,#43);
#45=PERSON_AND_ORGANIZATION_ROLE('creator');
#46=CC_DESIGN_PERSON_AND_ORGANIZATION_ASSIGNMENT(#44,#45,(#41));
#47=PERSON('3','Supplier','Joe',$,$,$);
#48=ORGANIZATION($,'None','None');
#49=PERSON_AND_ORGANIZATION(#47,#48);
#50=PERSON_AND_ORGANIZATION_ROLE('design_supplier');
#51=CC_DESIGN_PERSON_AND_ORGANIZATION_ASSIGNMENT(#49,#50,(#41));
#52=APPROVAL_STATUS('approved');
#53=APPROVAL(#52,'None');
#54=PERSON('4','Approver','Joe',$,$,$);
#55=ORGANIZATION($,'None','None');
#56=PERSON_AND_ORGANIZATION(#54,#55);
#57=APPROVAL_ROLE('approver');
#58=APPROVAL_PERSON_ORGANIZATION(#56,#53,#57);
#59=COORDINATED_UNIVERSAL_TIME_OFFSET(8,$,.EXACT.);
#60=CALENDAR_DATE(1996,29,5);
#61=LOCAL_TIME(12,0,0.0,#59);
#62=DATE_AND_TIME(#60,#61);
#63=APPROVAL_DATE_TIME(#62,#53);
#64=CC_DESIGN_APPROVAL(#53,(#41));
#65=SECURITY_CLASSIFICATION_LEVEL('unclassified');
#66=SECURITY_CLASSIFICATION('security','None',#65);
#67=CC_DESIGN_SECURITY_CLASSIFICATION(#66,(#41));
#68=APPROVAL_STATUS('approved');
#69=APPROVAL(#68,'None');
#70=PERSON('5','Approver','Joe',$,$,$);
#71=ORGANIZATION($,'None','None');
#72=PERSON_AND_ORGANIZATION(#70,#71);
#73=APPROVAL_ROLE('approver');
#74=APPROVAL_PERSON_ORGANIZATION(#72,#69,#73);
#75=COORDINATED_UNIVERSAL_TIME_OFFSET(8,$,.EXACT.);
#76=CALENDAR_DATE(1996,29,5);
#77=LOCAL_TIME(12,0,0.0,#75);
#78=DATE_AND_TIME(#76,#77);
#79=APPROVAL_DATE_TIME(#78,#69);
#80=CC_DESIGN_APPROVAL(#69,(#66));
#81=PERSON('6','Classifier','Joe',$,$,$);
#82=ORGANIZATION($,'None','None');
#83=PERSON_AND_ORGANIZATION(#81,#82);
#84=PERSON_AND_ORGANIZATION_ROLE('classification_officer');
#85=CC_DESIGN_PERSON_AND_ORGANIZATION_ASSIGNMENT(#83,#84,(#66));
#86=COORDINATED_UNIVERSAL_TIME_OFFSET(8,$,.EXACT.);
#87=CALENDAR_DATE(1996,29,5);
#88=LOCAL_TIME(12,0,0.0,#86);
#89=DATE_AND_TIME(#87,#88);
#90=DATE_TIME_ROLE('classification_date');
#91=CC_DESIGN_DATE_AND_TIME_ASSIGNMENT(#89,#90,(#66));
#92=DESIGN_CONTEXT('Design Context',#29,'design');
#93=PRODUCT_DEFINITION('None','None',#41,#92);
#94=PERSON('7','Creator','Joe',$,$,$);
#95=ORGANIZATION($,'None','None');
#96=PERSON_AND_ORGANIZATION(#94,#95);
#97=PERSON_AND_ORGANIZATION_ROLE('creator');
#98=CC_DESIGN_PERSON_AND_ORGANIZATION_ASSIGNMENT(#96,#97,(#93));
#99=COORDINATED_UNIVERSAL_TIME_OFFSET(8,$,.EXACT.);
#100=CALENDAR_DATE(1996,29,5);
#101=LOCAL_TIME(12,0,0.0,#99);
#102=DATE_AND_TIME(#100,#101);
#103=DATE_TIME_ROLE('creation_date');
#104=CC_DESIGN_DATE_AND_TIME_ASSIGNMENT(#102,#103,(#93));
#105=APPROVAL_STATUS('approved');
#106=APPROVAL(#105,'None');
#107=PERSON('8','Approver','Joe',$,$,$);
#108=ORGANIZATION($,'None','None');
#109=PERSON_AND_ORGANIZATION(#107,#108);
#110=APPROVAL_ROLE('approver');
#111=APPROVAL_PERSON_ORGANIZATION(#109,#106,#110);
#112=COORDINATED_UNIVERSAL_TIME_OFFSET(8,$,.EXACT.);
#113=CALENDAR_DATE(1996,29,5);
#114=LOCAL_TIME(12,0,0.0,#112);
#115=DATE_AND_TIME(#113,#114);
#116=APPROVAL_DATE_TIME(#115,#106);
#117=CC_DESIGN_APPROVAL(#106,(#93));
#118=CARTESIAN_POINT('NONE',(0.0,0.0,0.0));
#119=DIRECTION('NONE',(0.0,0.0,1.0));
#120=DIRECTION('NONE',(1.0,0.0,0.0));
#121=AXIS2_PLACEMENT_3D('NONE',#118,#119,#120);
#122=SHAPE_REPRESENTATION('SR1',(#121),#28);
#123=PRODUCT_DEFINITION_SHAPE('PDS1','Test Part',#93);
#124=SHAPE_DEFINITION_REPRESENTATION(#123,#122);
#125=CARTESIAN_POINT('',(-1.9,452.0,2.818903E-014));
#126=CARTESIAN_POINT('',(-1.9,459.0,2.818903E-014));
#127=CARTESIAN_POINT('',(-1.899999999999999,452.0,-1.899999999999971));
#128=CARTESIAN_POINT('',(-1.899999999999999,459.0,-1.899999999999971));
#129=CARTESIAN_POINT('',(2.326752E-016,452.0,-1.899999999999972));
#130=CARTESIAN_POINT('',(2.326752E-016,459.0,-1.899999999999972));
#131=CARTESIAN_POINT('',(1.9,452.0,-1.899999999999971));
#132=CARTESIAN_POINT('',(1.9,459.0,-1.899999999999971));
#133=CARTESIAN_POINT('',(1.9,452.0,2.865438E-014));
#134=CARTESIAN_POINT('',(1.9,459.0,2.865438E-014));
#135=CARTESIAN_POINT('',(1.899999999999999,452.0,1.900000000000028));
#136=CARTESIAN_POINT('',(1.899999999999999,459.0,1.900000000000028));
#137=CARTESIAN_POINT('',(-2.326752E-016,452.0,1.900000000000028));
#138=CARTESIAN_POINT('',(-2.326752E-016,459.0,1.900000000000028));
#139=CARTESIAN_POINT('',(-1.9,452.0,1.900000000000027));
#140=CARTESIAN_POINT('',(-1.9,459.0,1.900000000000027));
#141=CARTESIAN_POINT('',(-1.9,452.0,2.818903E-014));
#142=CARTESIAN_POINT('',(-1.9,459.0,2.818903E-014));
#150=(BOUNDED_SURFACE()B_SPLINE_SURFACE(1,2,((#125,#127,#129,#131,#133,#135,#137,#139,#141),(#126,#128,#130,#132,#134,#136,#138,#140,#142)),.UNSPECIFIED.,.F.,.T.,.U.)B_SPLINE_SURFACE_WITH_KNOTS((2,2),(3,2,2,2,3),(-2.105263157894737,1.578947368421053),(0.0,2.984513020910304,5.969026041820607,8.95353906273091,11.938052083641214),.UNSPECIFIED.)GEOMETRIC_REPRESENTATION_ITEM()RATIONAL_B_SPLINE_SURFACE(((1.0,0.707106781186548,1.0,0.707106781186548,1.0,0.707106781186548,1.0,0.707106781186548,1.0),(1.0,0.707106781186548,1.0,0.707106781186548,1.0,0.707106781186548,1.0,0.707106781186548,1.0)))REPRESENTATION_ITEM('')SURFACE());
#151=CARTESIAN_POINT('',(1.899999999999977,459.0,2.842171E-014));
#152=VERTEX_POINT('',#151);
#153=CARTESIAN_POINT('',(1.899999999999977,452.0,2.842171E-014));
#154=VERTEX_POINT('',#153);
#155=CARTESIAN_POINT('',(1.9,459.0,2.842171E-014));
#156=DIRECTION('',(0.0,-1.0,0.0));
#157=VECTOR('',#156,7.0);
#158=LINE('',#155,#157);
#159=EDGE_CURVE('',#152,#154,#158,.T.);
#160=ORIENTED_EDGE('',*,*,#159,.F.);
#161=CARTESIAN_POINT('',(-1.9,459.0,2.842171E-014));
#162=VERTEX_POINT('',#161);
#163=CARTESIAN_POINT('',(0.0,459.0,2.842171E-014));
#164=DIRECTION('',(0.0,-1.0,0.0));
#165=DIRECTION('',(-1.0,0.0,0.0));
#166=AXIS2_PLACEMENT_3D('',#163,#164,#165);
#167=CIRCLE('',#166,1.9);
#168=EDGE_CURVE('',#152,#162,#167,.T.);
#169=ORIENTED_EDGE('',*,*,#168,.T.);
#170=CARTESIAN_POINT('',(-1.9,452.0,2.818903E-014));
#171=VERTEX_POINT('',#170);
#172=CARTESIAN_POINT('',(-1.9,459.0,2.818903E-014));
#173=DIRECTION('',(0.0,-1.0,0.0));
#174=VECTOR('',#173,7.0);
#175=LINE('',#172,#174);
#176=EDGE_CURVE('',#162,#171,#175,.T.);
#177=ORIENTED_EDGE('',*,*,#176,.T.);
#178=CARTESIAN_POINT('',(0.0,452.0,2.842171E-014));
#179=DIRECTION('',(0.0,1.0,0.0));
#180=DIRECTION('',(1.0,0.0,0.0));
#181=AXIS2_PLACEMENT_3D('',#178,#179,#180);
#182=CIRCLE('',#181,1.9);
#183=EDGE_CURVE('',#171,#154,#182,.T.);
#184=ORIENTED_EDGE('',*,*,#183,.T.);
#185=EDGE_LOOP('',(#160,#169,#177,#184));
#186=FACE_OUTER_BOUND('',#185,.T.);
#187=ADVANCED_FACE('',(#186),#150,.T.);
#188=CARTESIAN_POINT('',(1.9,459.0,2.865438E-014));
#189=CARTESIAN_POINT('',(0.9,460.0,2.853192E-014));
#190=CARTESIAN_POINT('',(1.899999999999999,459.0,1.900000000000028));
#191=CARTESIAN_POINT('',(0.899999999999999,460.0,0.900000000000028));
#192=CARTESIAN_POINT('',(-2.326752E-016,459.0,1.900000000000028));
#193=CARTESIAN_POINT('',(-1.102146E-016,460.0,0.900000000000028));
#194=CARTESIAN_POINT('',(-1.9,459.0,1.900000000000027));
#195=CARTESIAN_POINT('',(-0.9,460.0,0.900000000000028));
#196=CARTESIAN_POINT('',(-1.9,459.0,2.818903E-014));
#197=CARTESIAN_POINT('',(-0.9,460.0,2.831149E-014));
#198=CARTESIAN_POINT('',(-1.899999999999999,459.0,-1.899999999999971));
#199=CARTESIAN_POINT('',(-0.899999999999999,460.0,-0.899999999999971));
#200=CARTESIAN_POINT('',(2.326752E-016,459.0,-1.899999999999972));
#201=CARTESIAN_POINT('',(1.102146E-016,460.0,-0.899999999999971));
#202=CARTESIAN_POINT('',(1.9,459.0,-1.899999999999971));
#203=CARTESIAN_POINT('',(0.9,460.0,-0.899999999999971));
#204=CARTESIAN_POINT('',(1.9,459.0,2.865438E-014));
#205=CARTESIAN_POINT('',(0.9,460.0,2.853192E-014));
#213=(BOUNDED_SURFACE()B_SPLINE_SURFACE(1,2,((#188,#190,#192,#194,#196,#198,#200,#202,#204),(#189,#191,#193,#195,#197,#199,#201,#203,#205)),.UNSPECIFIED.,.F.,.T.,.U.)B_SPLINE_SURFACE_WITH_KNOTS((2,2),(3,2,2,2,3),(-0.505076272276106,0.505076272276106),(0.0,2.199114857512855,4.39822971502571,6.597344572538566,8.796459430051421),.UNSPECIFIED.)GEOMETRIC_REPRESENTATION_ITEM()RATIONAL_B_SPLINE_SURFACE(((1.0,0.707106781186548,1.0,0.707106781186548,1.0,0.707106781186548,1.0,0.707106781186548,1.0),(1.0,0.707106781186548,1.0,0.707106781186548,1.0,0.707106781186548,1.0,0.707106781186548,1.0)))REPRESENTATION_ITEM('')SURFACE());
#214=CARTESIAN_POINT('',(-0.9,460.0,2.842171E-014));
#215=VERTEX_POINT('',#214);
#216=CARTESIAN_POINT('',(-0.9,460.0,2.842171E-014));
#217=DIRECTION('',(-0.707106781186547,-0.707106781186547,0.0));
#218=VECTOR('',#217,1.414213562373095);
#219=LINE('',#216,#218);
#220=EDGE_CURVE('',#215,#162,#219,.T.);
#221=ORIENTED_EDGE('',*,*,#220,.F.);
#222=CARTESIAN_POINT('',(0.899999999999977,460.0,2.842171E-014));
#223=VERTEX_POINT('',#222);
#224=CARTESIAN_POINT('',(0.0,460.0,2.842171E-014));
#225=DIRECTION('',(0.0,1.0,0.0));
#226=DIRECTION('',(-1.0,0.0,0.0));
#227=AXIS2_PLACEMENT_3D('',#224,#225,#226);
#228=CIRCLE('',#227,0.9);
#229=EDGE_CURVE('',#223,#215,#228,.T.);
#230=ORIENTED_EDGE('',*,*,#229,.F.);
#231=CARTESIAN_POINT('',(0.9,460.0,2.853192E-014));
#232=DIRECTION('',(0.707106781186544,-0.707106781186551,8.659275E-017));
#233=VECTOR('',#232,1.414213562373087);
#234=LINE('',#231,#233);
#235=EDGE_CURVE('',#223,#152,#234,.T.);
#236=ORIENTED_EDGE('',*,*,#235,.T.);
#237=CARTESIAN_POINT('',(0.0,459.0,2.842171E-014));
#238=DIRECTION('',(0.0,-1.0,0.0));
#239=DIRECTION('',(-1.0,0.0,0.0));
#240=AXIS2_PLACEMENT_3D('',#237,#238,#239);
#241=CIRCLE('',#240,1.9);
#242=EDGE_CURVE('',#162,#152,#241,.T.);
#243=ORIENTED_EDGE('',*,*,#242,.F.);
#244=EDGE_LOOP('',(#221,#230,#236,#243));
#245=FACE_OUTER_BOUND('',#244,.T.);
#246=ADVANCED_FACE('',(#245),#213,.T.);
#247=CARTESIAN_POINT('',(1.9,459.0,2.865438E-014));
#248=CARTESIAN_POINT('',(0.9,460.0,2.853192E-014));
#249=CARTESIAN_POINT('',(1.899999999999999,459.0,1.900000000000028));
#250=CARTESIAN_POINT('',(0.899999999999999,460.0,0.900000000000028));
#251=CARTESIAN_POINT('',(-2.326752E-016,459.0,1.900000000000028));
#252=CARTESIAN_POINT('',(-1.102146E-016,460.0,0.900000000000028));
#253=CARTESIAN_POINT('',(-1.9,459.0,1.900000000000027));
#254=CARTESIAN_POINT('',(-0.9,460.0,0.900000000000028));
#255=CARTESIAN_POINT('',(-1.9,459.0,2.818903E-014));
#256=CARTESIAN_POINT('',(-0.9,460.0,2.831149E-014));
#257=CARTESIAN_POINT('',(-1.899999999999999,459.0,-1.899999999999971));
#258=CARTESIAN_POINT('',(-0.899999999999999,460.0,-0.899999999999971));
#259=CARTESIAN_POINT('',(2.326752E-016,459.0,-1.899999999999972));
#260=CARTESIAN_POINT('',(1.102146E-016,460.0,-0.899999999999971));
#261=CARTESIAN_POINT('',(1.9,459.0,-1.899999999999971));
#262=CARTESIAN_POINT('',(0.9,460.0,-0.899999999999971));
#263=CARTESIAN_POINT('',(1.9,459.0,2.865438E-014));
#264=CARTESIAN_POINT('',(0.9,460.0,2.853192E-014));
#272=(BOUNDED_SURFACE()B_SPLINE_SURFACE(1,2,((#247,#249,#251,#253,#255,#257,#259,#261,#263),(#248,#250,#252,#254,#256,#258,#260,#262,#264)),.UNSPECIFIED.,.F.,.T.,.U.)B_SPLINE_SURFACE_WITH_KNOTS((2,2),(3,2,2,2,3),(-0.505076272276106,0.505076272276106),(0.0,2.199114857512855,4.39822971502571,6.597344572538566,8.796459430051421),.UNSPECIFIED.)GEOMETRIC_REPRESENTATION_ITEM()RATIONAL_B_SPLINE_SURFACE(((1.0,0.707106781186548,1.0,0.707106781186548,1.0,0.707106781186548,1.0,0.707106781186548,1.0),(1.0,0.707106781186548,1.0,0.707106781186548,1.0,0.707106781186548,1.0,0.707106781186548,1.0)))REPRESENTATION_ITEM('')SURFACE());
#273=ORIENTED_EDGE('',*,*,#220,.T.);
#274=ORIENTED_EDGE('',*,*,#168,.F.);
#275=ORIENTED_EDGE('',*,*,#235,.F.);
#276=CARTESIAN_POINT('',(0.0,460.0,2.842171E-014));
#277=DIRECTION('',(0.0,1.0,0.0));
#278=DIRECTION('',(-1.0,0.0,0.0));
#279=AXIS2_PLACEMENT_3D('',#276,#277,#278);
#280=CIRCLE('',#279,0.9);
#281=EDGE_CURVE('',#215,#223,#280,.T.);
#282=ORIENTED_EDGE('',*,*,#281,.F.);
#283=EDGE_LOOP('',(#273,#274,#275,#282));
#284=FACE_OUTER_BOUND('',#283,.T.);
#285=ADVANCED_FACE('',(#284),#272,.T.);
#286=CARTESIAN_POINT('',(-1.9,452.0,2.818903E-014));
#287=CARTESIAN_POINT('',(-1.9,459.0,2.818903E-014));
#288=CARTESIAN_POINT('',(-1.899999999999999,452.0,-1.899999999999971));
#289=CARTESIAN_POINT('',(-1.899999999999999,459.0,-1.899999999999971));
#290=CARTESIAN_POINT('',(2.326752E-016,452.0,-1.899999999999972));
#291=CARTESIAN_POINT('',(2.326752E-016,459.0,-1.899999999999972));
#292=CARTESIAN_POINT('',(1.9,452.0,-1.899999999999971));
#293=CARTESIAN_POINT('',(1.9,459.0,-1.899999999999971));
#294=CARTESIAN_POINT('',(1.9,452.0,2.865438E-014));
#295=CARTESIAN_POINT('',(1.9,459.0,2.865438E-014));
#296=CARTESIAN_POINT('',(1.899999999999999,452.0,1.900000000000028));
#297=CARTESIAN_POINT('',(1.899999999999999,459.0,1.900000000000028));
#298=CARTESIAN_POINT('',(-2.326752E-016,452.0,1.900000000000028));
#299=CARTESIAN_POINT('',(-2.326752E-016,459.0,1.900000000000028));
#300=CARTESIAN_POINT('',(-1.9,452.0,1.900000000000027));
#301=CARTESIAN_POINT('',(-1.9,459.0,1.900000000000027));
#302=CARTESIAN_POINT('',(-1.9,452.0,2.818903E-014));
#303=CARTESIAN_POINT('',(-1.9,459.0,2.818903E-014));
#311=(BOUNDED_SURFACE()B_SPLINE_SURFACE(1,2,((#286,#288,#290,#292,#294,#296,#298,#300,#302),(#287,#289,#291,#293,#295,#297,#299,#301,#303)),.UNSPECIFIED.,.F.,.T.,.U.)B_SPLINE_SURFACE_WITH_KNOTS((2,2),(3,2,2,2,3),(-2.105263157894737,1.578947368421053),(0.0,2.984513020910304,5.969026041820607,8.95353906273091,11.938052083641214),.UNSPECIFIED.)GEOMETRIC_REPRESENTATION_ITEM()RATIONAL_B_SPLINE_SURFACE(((1.0,0.707106781186548,1.0,0.707106781186548,1.0,0.707106781186548,1.0,0.707106781186548,1.0),(1.0,0.707106781186548,1.0,0.707106781186548,1.0,0.707106781186548,1.0,0.707106781186548,1.0)))REPRESENTATION_ITEM('')SURFACE());
#312=ORIENTED_EDGE('',*,*,#159,.T.);
#313=CARTESIAN_POINT('',(0.0,452.0,2.842171E-014));
#314=DIRECTION('',(0.0,1.0,0.0));
#315=DIRECTION('',(1.0,0.0,0.0));
#316=AXIS2_PLACEMENT_3D('',#313,#314,#315);
#317=CIRCLE('',#316,1.9);
#318=EDGE_CURVE('',#154,#171,#317,.T.);
#319=ORIENTED_EDGE('',*,*,#318,.T.);
#320=ORIENTED_EDGE('',*,*,#176,.F.);
#321=ORIENTED_EDGE('',*,*,#242,.T.);
#322=EDGE_LOOP('',(#312,#319,#320,#321));
#323=FACE_OUTER_BOUND('',#322,.T.);
#324=ADVANCED_FACE('',(#323),#311,.T.);
#325=CARTESIAN_POINT('',(-0.9,460.0,0.900000000000028));
#326=CARTESIAN_POINT('',(0.9,460.0,0.900000000000028));
#327=CARTESIAN_POINT('',(-0.9,460.0,-0.899999999999971));
#328=CARTESIAN_POINT('',(0.9,460.0,-0.899999999999971));
#329=B_SPLINE_SURFACE_WITH_KNOTS('',1,1,((#325,#327),(#326,#328)),.UNSPECIFIED.,.F.,.F.,.U.,(2,2),(2,2),(0.0,1.8),(0.0,1.8),.UNSPECIFIED.);
#330=ORIENTED_EDGE('',*,*,#229,.T.);
#331=ORIENTED_EDGE('',*,*,#281,.T.);
#332=EDGE_LOOP('',(#330,#331));
#333=FACE_OUTER_BOUND('',#332,.T.);
#334=ADVANCED_FACE('',(#333),#329,.T.);
#335=CARTESIAN_POINT('',(1.9,452.0,1.900000000000028));
#336=CARTESIAN_POINT('',(-1.9,452.0,1.900000000000028));
#337=CARTESIAN_POINT('',(1.9,452.0,-1.899999999999972));
#338=CARTESIAN_POINT('',(-1.9,452.0,-1.899999999999972));
#339=B_SPLINE_SURFACE_WITH_KNOTS('',1,1,((#335,#337),(#336,#338)),.UNSPECIFIED.,.F.,.F.,.U.,(2,2),(2,2),(0.0,3.8),(0.0,3.8),.UNSPECIFIED.);
#340=ORIENTED_EDGE('',*,*,#318,.F.);
#341=ORIENTED_EDGE('',*,*,#183,.F.);
#342=EDGE_LOOP('',(#340,#341));
#343=FACE_OUTER_BOUND('',#342,.T.);
#344=ADVANCED_FACE('',(#343),#339,.T.);
#345=CLOSED_SHELL('',(#187,#246,#285,#324,#334,#344));
#346=MANIFOLD_SOLID_BREP('7AD7',#345);
#347=CARTESIAN_POINT('',(0.0,4.0,0.0));
#348=DIRECTION('',(0.0,-1.0,0.0));
#349=DIRECTION('',(1.0,0.0,0.0));
#350=AXIS2_PLACEMENT_3D('',#347,#348,#349);
#351=CYLINDRICAL_SURFACE('',#350,1.9);
#352=CARTESIAN_POINT('',(1.899999999999977,1.0,0.0));
#353=VERTEX_POINT('',#352);
#354=CARTESIAN_POINT('',(1.899999999999977,8.0,0.0));
#355=VERTEX_POINT('',#354);
#356=CARTESIAN_POINT('',(1.9,1.0,0.0));
#357=DIRECTION('',(0.0,1.0,0.0));
#358=VECTOR('',#357,7.0);
#359=LINE('',#356,#358);
#360=EDGE_CURVE('',#353,#355,#359,.T.);
#361=ORIENTED_EDGE('',*,*,#360,.F.);
#362=CARTESIAN_POINT('',(-1.9,1.0,0.0));
#363=VERTEX_POINT('',#362);
#364=CARTESIAN_POINT('',(0.0,1.0,0.0));
#365=DIRECTION('',(0.0,-1.0,0.0));
#366=DIRECTION('',(-1.0,0.0,0.0));
#367=AXIS2_PLACEMENT_3D('',#364,#365,#366);
#368=CIRCLE('',#367,1.9);
#369=EDGE_CURVE('',#363,#353,#368,.T.);
#370=ORIENTED_EDGE('',*,*,#369,.F.);
#371=CARTESIAN_POINT('',(-1.9,8.0,-2.326752E-016));
#372=VERTEX_POINT('',#371);
#373=CARTESIAN_POINT('',(-1.9,1.0,-2.326752E-016));
#374=DIRECTION('',(0.0,1.0,0.0));
#375=VECTOR('',#374,7.0);
#376=LINE('',#373,#375);
#377=EDGE_CURVE('',#363,#372,#376,.T.);
#378=ORIENTED_EDGE('',*,*,#377,.T.);
#379=CARTESIAN_POINT('',(0.0,8.0,0.0));
#380=DIRECTION('',(0.0,1.0,0.0));
#381=DIRECTION('',(1.0,0.0,0.0));
#382=AXIS2_PLACEMENT_3D('',#379,#380,#381);
#383=CIRCLE('',#382,1.9);
#384=EDGE_CURVE('',#355,#372,#383,.T.);
#385=ORIENTED_EDGE('',*,*,#384,.F.);
#386=EDGE_LOOP('',(#361,#370,#378,#385));
#387=FACE_OUTER_BOUND('',#386,.T.);
#388=ADVANCED_FACE('',(#387),#351,.T.);
#389=CARTESIAN_POINT('',(0.0,0.5,0.0));
#390=DIRECTION('',(0.0,1.0,0.0));
#391=DIRECTION('',(-1.0,0.0,0.0));
#392=AXIS2_PLACEMENT_3D('',#389,#390,#391);
#393=CONICAL_SURFACE('',#392,1.4,44.999999999999993);
#394=CARTESIAN_POINT('',(-0.9,0.0,0.0));
#395=VERTEX_POINT('',#394);
#396=CARTESIAN_POINT('',(-0.9,0.0,0.0));
#397=DIRECTION('',(-0.707106781186547,0.707106781186547,0.0));
#398=VECTOR('',#397,1.414213562373095);
#399=LINE('',#396,#398);
#400=EDGE_CURVE('',#395,#363,#399,.T.);
#401=ORIENTED_EDGE('',*,*,#400,.F.);
#402=CARTESIAN_POINT('',(0.899999999999977,0.0,0.0));
#403=VERTEX_POINT('',#402);
#404=CARTESIAN_POINT('',(0.0,0.0,0.0));
#405=DIRECTION('',(0.0,1.0,0.0));
#406=DIRECTION('',(-1.0,0.0,0.0));
#407=AXIS2_PLACEMENT_3D('',#404,#405,#406);
#408=CIRCLE('',#407,0.9);
#409=EDGE_CURVE('',#395,#403,#408,.T.);
#410=ORIENTED_EDGE('',*,*,#409,.T.);
#411=CARTESIAN_POINT('',(0.9,0.0,1.102146E-016));
#412=DIRECTION('',(0.707106781186547,0.707106781186547,8.659275E-017));
#413=VECTOR('',#412,1.414213562373079);
#414=LINE('',#411,#413);
#415=EDGE_CURVE('',#403,#353,#414,.T.);
#416=ORIENTED_EDGE('',*,*,#415,.T.);
#417=CARTESIAN_POINT('',(0.0,1.0,0.0));
#418=DIRECTION('',(0.0,-1.0,0.0));
#419=DIRECTION('',(-1.0,0.0,0.0));
#420=AXIS2_PLACEMENT_3D('',#417,#418,#419);
#421=CIRCLE('',#420,1.9);
#422=EDGE_CURVE('',#353,#363,#421,.T.);
#423=ORIENTED_EDGE('',*,*,#422,.T.);
#424=EDGE_LOOP('',(#401,#410,#416,#423));
#425=FACE_OUTER_BOUND('',#424,.T.);
#426=ADVANCED_FACE('',(#425),#393,.T.);
#427=CARTESIAN_POINT('',(0.0,0.5,0.0));
#428=DIRECTION('',(0.0,1.0,0.0));
#429=DIRECTION('',(-1.0,0.0,0.0));
#430=AXIS2_PLACEMENT_3D('',#427,#428,#429);
#431=CONICAL_SURFACE('',#430,1.4,44.999999999999993);
#432=ORIENTED_EDGE('',*,*,#400,.T.);
#433=ORIENTED_EDGE('',*,*,#369,.T.);
#434=ORIENTED_EDGE('',*,*,#415,.F.);
#435=CARTESIAN_POINT('',(0.0,0.0,0.0));
#436=DIRECTION('',(0.0,1.0,0.0));
#437=DIRECTION('',(-1.0,0.0,0.0));
#438=AXIS2_PLACEMENT_3D('',#435,#436,#437);
#439=CIRCLE('',#438,0.9);
#440=EDGE_CURVE('',#403,#395,#439,.T.);
#441=ORIENTED_EDGE('',*,*,#440,.T.);
#442=EDGE_LOOP('',(#432,#433,#434,#441));
#443=FACE_OUTER_BOUND('',#442,.T.);
#444=ADVANCED_FACE('',(#443),#431,.T.);
#445=CARTESIAN_POINT('',(0.0,4.0,0.0));
#446=DIRECTION('',(0.0,-1.0,0.0));
#447=DIRECTION('',(1.0,0.0,0.0));
#448=AXIS2_PLACEMENT_3D('',#445,#446,#447);
#449=CYLINDRICAL_SURFACE('',#448,1.9);
#450=ORIENTED_EDGE('',*,*,#360,.T.);
#451=CARTESIAN_POINT('',(0.0,8.0,0.0));
#452=DIRECTION('',(0.0,1.0,0.0));
#453=DIRECTION('',(1.0,0.0,0.0));
#454=AXIS2_PLACEMENT_3D('',#451,#452,#453);
#455=CIRCLE('',#454,1.9);
#456=EDGE_CURVE('',#372,#355,#455,.T.);
#457=ORIENTED_EDGE('',*,*,#456,.F.);
#458=ORIENTED_EDGE('',*,*,#377,.F.);
#459=ORIENTED_EDGE('',*,*,#422,.F.);
#460=EDGE_LOOP('',(#450,#457,#458,#459));
#461=FACE_OUTER_BOUND('',#460,.T.);
#462=ADVANCED_FACE('',(#461),#449,.T.);
#463=CARTESIAN_POINT('',(0.0,0.0,0.0));
#464=DIRECTION('',(0.0,-1.0,0.0));
#465=DIRECTION('',(1.0,0.0,0.0));
#466=AXIS2_PLACEMENT_3D('',#463,#464,#465);
#467=PLANE('',#466);
#468=ORIENTED_EDGE('',*,*,#440,.F.);
#469=ORIENTED_EDGE('',*,*,#409,.F.);
#470=EDGE_LOOP('',(#468,#469));
#471=FACE_OUTER_BOUND('',#470,.T.);
#472=ADVANCED_FACE('',(#471),#467,.T.);
#473=CARTESIAN_POINT('',(0.0,8.0,0.0));
#474=DIRECTION('',(0.0,1.0,0.0));
#475=DIRECTION('',(-1.0,0.0,0.0));
#476=AXIS2_PLACEMENT_3D('',#473,#474,#475);
#477=PLANE('',#476);
#478=ORIENTED_EDGE('',*,*,#384,.T.);
#479=ORIENTED_EDGE('',*,*,#456,.T.);
#480=EDGE_LOOP('',(#478,#479));
#481=FACE_OUTER_BOUND('',#480,.T.);
#482=ADVANCED_FACE('',(#481),#477,.T.);
#483=CLOSED_SHELL('',(#388,#426,#444,#462,#472,#482));
#484=MANIFOLD_SOLID_BREP('7AD6',#483);
#485=CARTESIAN_POINT('',(0.0,222.00000000000003,2.842171E-014));
#486=DIRECTION('',(0.0,-1.0,0.0));
#487=DIRECTION('',(1.0,0.0,0.0));
#488=AXIS2_PLACEMENT_3D('',#485,#486,#487);
#489=CYLINDRICAL_SURFACE('',#488,2.0);
#490=CARTESIAN_POINT('',(2.0,8.0,2.842171E-014));
#491=VERTEX_POINT('',#490);
#492=CARTESIAN_POINT('',(2.0,452.0,2.842171E-014));
#493=VERTEX_POINT('',#492);
#494=CARTESIAN_POINT('',(2.0,8.0,2.842171E-014));
#495=DIRECTION('',(0.0,1.0,0.0));
#496=VECTOR('',#495,444.0);
#497=LINE('',#494,#496);
#498=EDGE_CURVE('',#491,#493,#497,.T.);
#499=ORIENTED_EDGE('',*,*,#498,.F.);
#500=CARTESIAN_POINT('',(-2.0,8.0,2.817679E-014));
#501=VERTEX_POINT('',#500);
#502=CARTESIAN_POINT('',(0.0,8.0,2.842171E-014));
#503=DIRECTION('',(0.0,1.0,0.0));
#504=DIRECTION('',(1.0,0.0,0.0));
#505=AXIS2_PLACEMENT_3D('',#502,#503,#504);
#506=CIRCLE('',#505,2.0);
#507=EDGE_CURVE('',#491,#501,#506,.T.);
#508=ORIENTED_EDGE('',*,*,#507,.T.);
#509=CARTESIAN_POINT('',(-2.0,452.0,2.817679E-014));
#510=VERTEX_POINT('',#509);
#511=CARTESIAN_POINT('',(-2.0,8.0,2.817679E-014));
#512=DIRECTION('',(0.0,1.0,0.0));
#513=VECTOR('',#512,444.0);
#514=LINE('',#511,#513);
#515=EDGE_CURVE('',#501,#510,#514,.T.);
#516=ORIENTED_EDGE('',*,*,#515,.T.);
#517=CARTESIAN_POINT('',(0.0,452.0,2.842171E-014));
#518=DIRECTION('',(0.0,1.0,0.0));
#519=DIRECTION('',(1.0,0.0,0.0));
#520=AXIS2_PLACEMENT_3D('',#517,#518,#519);
#521=CIRCLE('',#520,2.0);
#522=EDGE_CURVE('',#493,#510,#521,.T.);
#523=ORIENTED_EDGE('',*,*,#522,.F.);
#524=EDGE_LOOP('',(#499,#508,#516,#523));
#525=FACE_OUTER_BOUND('',#524,.T.);
#526=ADVANCED_FACE('',(#525),#489,.T.);
#527=CARTESIAN_POINT('',(0.0,8.0,2.842171E-014));
#528=DIRECTION('',(0.0,1.0,0.0));
#529=DIRECTION('',(0.0,0.0,1.0));
#530=AXIS2_PLACEMENT_3D('',#527,#528,#529);
#531=PLANE('',#530);
#532=CARTESIAN_POINT('',(0.0,8.0,2.000000000000028));
#533=VERTEX_POINT('',#532);
#534=CARTESIAN_POINT('',(0.0,8.0,2.842171E-014));
#535=DIRECTION('',(0.0,1.0,0.0));
#536=DIRECTION('',(1.0,0.0,0.0));
#537=AXIS2_PLACEMENT_3D('',#534,#535,#536);
#538=CIRCLE('',#537,2.0);
#539=EDGE_CURVE('',#533,#491,#538,.T.);
#540=ORIENTED_EDGE('',*,*,#539,.F.);
#541=CARTESIAN_POINT('',(0.0,8.0,2.842171E-014));
#542=DIRECTION('',(0.0,1.0,0.0));
#543=DIRECTION('',(1.0,0.0,0.0));
#544=AXIS2_PLACEMENT_3D('',#541,#542,#543);
#545=CIRCLE('',#544,2.0);
#546=EDGE_CURVE('',#501,#533,#545,.T.);
#547=ORIENTED_EDGE('',*,*,#546,.F.);
#548=ORIENTED_EDGE('',*,*,#507,.F.);
#549=EDGE_LOOP('',(#540,#547,#548));
#550=FACE_OUTER_BOUND('',#549,.T.);
#551=ADVANCED_FACE('',(#550),#531,.F.);
#552=CARTESIAN_POINT('',(0.0,222.00000000000003,2.842171E-014));
#553=DIRECTION('',(0.0,-1.0,0.0));
#554=DIRECTION('',(1.0,0.0,0.0));
#555=AXIS2_PLACEMENT_3D('',#552,#553,#554);
#556=CYLINDRICAL_SURFACE('',#555,2.0);
#557=ORIENTED_EDGE('',*,*,#498,.T.);
#558=CARTESIAN_POINT('',(0.0,452.0,2.842171E-014));
#559=DIRECTION('',(0.0,1.0,0.0));
#560=DIRECTION('',(1.0,0.0,0.0));
#561=AXIS2_PLACEMENT_3D('',#558,#559,#560);
#562=CIRCLE('',#561,2.0);
#563=EDGE_CURVE('',#510,#493,#562,.T.);
#564=ORIENTED_EDGE('',*,*,#563,.F.);
#565=ORIENTED_EDGE('',*,*,#515,.F.);
#566=ORIENTED_EDGE('',*,*,#546,.T.);
#567=ORIENTED_EDGE('',*,*,#539,.T.);
#568=EDGE_LOOP('',(#557,#564,#565,#566,#567));
#569=FACE_OUTER_BOUND('',#568,.T.);
#570=ADVANCED_FACE('',(#569),#556,.T.);
#571=CARTESIAN_POINT('',(0.0,452.0,2.842171E-014));
#572=DIRECTION('',(0.0,1.0,0.0));
#573=DIRECTION('',(-1.0,0.0,0.0));
#574=AXIS2_PLACEMENT_3D('',#571,#572,#573);
#575=PLANE('',#574);
#576=ORIENTED_EDGE('',*,*,#522,.T.);
#577=ORIENTED_EDGE('',*,*,#563,.T.);
#578=EDGE_LOOP('',(#576,#577));
#579=FACE_OUTER_BOUND('',#578,.T.);
#580=ADVANCED_FACE('',(#579),#575,.T.);
#581=CLOSED_SHELL('',(#526,#551,#570,#580));
#582=MANIFOLD_SOLID_BREP('7AD5',#581);
#583=ADVANCED_BREP_SHAPE_REPRESENTATION('ABSR1',(#346,#484,#582),#28);
#584=SHAPE_REPRESENTATION_RELATIONSHIP('SRRPL1','',#583,#122);
ENDSEC;
END-ISO-10303-21;
