ISO-10303-21;
HEADER;
/****************************************************************
 * Generated by software with PDElib inside                    *
 * PDElib Version v51a, created Fri 09/10/2010                  *
 * ITI Transcendata (http://www.transcendata.com/)              *
 ****************************************************************/
FILE_DESCRIPTION((''),'2;1');
FILE_NAME('3d_11G350.stp','2012-10-03T13:25:49',(''),(''),'Mechanical Desktop 2011','Mechanical Desktop 2011',', , ');
FILE_SCHEMA(('CONFIG_CONTROL_DESIGN'));
ENDSEC;
DATA;
#10=(NAMED_UNIT(*)PLANE_ANGLE_UNIT()SI_UNIT($,.RADIAN.));
#11=DIMENSIONAL_EXPONENTS(0.0,0.0,0.0,0.0,0.0,0.0,0.0);
#12=PLANE_ANGLE_MEASURE_WITH_UNIT(PLANE_ANGLE_MEASURE(0.0174532925),#10);
#16=(CONVERSION_BASED_UNIT('DEGREE',#12)NAMED_UNIT(#11)PLANE_ANGLE_UNIT());
#20=(NAMED_UNIT(*)SI_UNIT($,.STERADIAN.)SOLID_ANGLE_UNIT());
#24=(LENGTH_UNIT()NAMED_UNIT(*)SI_UNIT(.MILLI.,.METRE.));
#26=UNCERTAINTY_MEASURE_WITH_UNIT(LENGTH_MEASURE(0.000001),#24,'DISTANCE_ACCURACY_VALUE','');
#28=(GEOMETRIC_REPRESENTATION_CONTEXT(3)GLOBAL_UNCERTAINTY_ASSIGNED_CONTEXT((#26))GLOBAL_UNIT_ASSIGNED_CONTEXT((#16,#20,#24))REPRESENTATION_CONTEXT('','3D'));
#29=APPLICATION_CONTEXT('CONFIGURATION CONTROLLED 3D DESIGNS OF MECHANICAL PARTS AND ASSEMBLIES');
#30=APPLICATION_PROTOCOL_DEFINITION('INTERNATIONAL STANDARD','config_control_design',1995,#29);
#31=MECHANICAL_CONTEXT('3D Mechanical Parts',#29,'mechanical');
#32=PRODUCT('Product','Product',' ',(#31));
#33=PRODUCT_RELATED_PRODUCT_CATEGORY('detail',$,(#32));
#34=PRODUCT_CATEGORY('part',$);
#35=PRODUCT_CATEGORY_RELATIONSHIP('None','None',#34,#33);
#36=PERSON('1','Design','Joe',$,$,$);
#37=ORGANIZATION($,'None','None');
#38=PERSON_AND_ORGANIZATION(#36,#37);
#39=PERSON_AND_ORGANIZATION_ROLE('design_owner');
#40=CC_DESIGN_PERSON_AND_ORGANIZATION_ASSIGNMENT(#38,#39,(#32));
#41=PRODUCT_DEFINITION_FORMATION_WITH_SPECIFIED_SOURCE('None','None',#32,.BOUGHT.);
#42=PERSON('2','Creator','Joe',$,$,$);
#43=ORGANIZATION($,'None','None');
#44=PERSON_AND_ORGANIZATION(#42,#43);
#45=PERSON_AND_ORGANIZATION_ROLE('creator');
#46=CC_DESIGN_PERSON_AND_ORGANIZATION_ASSIGNMENT(#44,#45,(#41));
#47=PERSON('3','Supplier','Joe',$,$,$);
#48=ORGANIZATION($,'None','None');
#49=PERSON_AND_ORGANIZATION(#47,#48);
#50=PERSON_AND_ORGANIZATION_ROLE('design_supplier');
#51=CC_DESIGN_PERSON_AND_ORGANIZATION_ASSIGNMENT(#49,#50,(#41));
#52=APPROVAL_STATUS('approved');
#53=APPROVAL(#52,'None');
#54=PERSON('4','Approver','Joe',$,$,$);
#55=ORGANIZATION($,'None','None');
#56=PERSON_AND_ORGANIZATION(#54,#55);
#57=APPROVAL_ROLE('approver');
#58=APPROVAL_PERSON_ORGANIZATION(#56,#53,#57);
#59=COORDINATED_UNIVERSAL_TIME_OFFSET(8,$,.EXACT.);
#60=CALENDAR_DATE(1996,29,5);
#61=LOCAL_TIME(12,0,0.0,#59);
#62=DATE_AND_TIME(#60,#61);
#63=APPROVAL_DATE_TIME(#62,#53);
#64=CC_DESIGN_APPROVAL(#53,(#41));
#65=SECURITY_CLASSIFICATION_LEVEL('unclassified');
#66=SECURITY_CLASSIFICATION('security','None',#65);
#67=CC_DESIGN_SECURITY_CLASSIFICATION(#66,(#41));
#68=APPROVAL_STATUS('approved');
#69=APPROVAL(#68,'None');
#70=PERSON('5','Approver','Joe',$,$,$);
#71=ORGANIZATION($,'None','None');
#72=PERSON_AND_ORGANIZATION(#70,#71);
#73=APPROVAL_ROLE('approver');
#74=APPROVAL_PERSON_ORGANIZATION(#72,#69,#73);
#75=COORDINATED_UNIVERSAL_TIME_OFFSET(8,$,.EXACT.);
#76=CALENDAR_DATE(1996,29,5);
#77=LOCAL_TIME(12,0,0.0,#75);
#78=DATE_AND_TIME(#76,#77);
#79=APPROVAL_DATE_TIME(#78,#69);
#80=CC_DESIGN_APPROVAL(#69,(#66));
#81=PERSON('6','Classifier','Joe',$,$,$);
#82=ORGANIZATION($,'None','None');
#83=PERSON_AND_ORGANIZATION(#81,#82);
#84=PERSON_AND_ORGANIZATION_ROLE('classification_officer');
#85=CC_DESIGN_PERSON_AND_ORGANIZATION_ASSIGNMENT(#83,#84,(#66));
#86=COORDINATED_UNIVERSAL_TIME_OFFSET(8,$,.EXACT.);
#87=CALENDAR_DATE(1996,29,5);
#88=LOCAL_TIME(12,0,0.0,#86);
#89=DATE_AND_TIME(#87,#88);
#90=DATE_TIME_ROLE('classification_date');
#91=CC_DESIGN_DATE_AND_TIME_ASSIGNMENT(#89,#90,(#66));
#92=DESIGN_CONTEXT('Design Context',#29,'design');
#93=PRODUCT_DEFINITION('None','None',#41,#92);
#94=PERSON('7','Creator','Joe',$,$,$);
#95=ORGANIZATION($,'None','None');
#96=PERSON_AND_ORGANIZATION(#94,#95);
#97=PERSON_AND_ORGANIZATION_ROLE('creator');
#98=CC_DESIGN_PERSON_AND_ORGANIZATION_ASSIGNMENT(#96,#97,(#93));
#99=COORDINATED_UNIVERSAL_TIME_OFFSET(8,$,.EXACT.);
#100=CALENDAR_DATE(1996,29,5);
#101=LOCAL_TIME(12,0,0.0,#99);
#102=DATE_AND_TIME(#100,#101);
#103=DATE_TIME_ROLE('creation_date');
#104=CC_DESIGN_DATE_AND_TIME_ASSIGNMENT(#102,#103,(#93));
#105=APPROVAL_STATUS('approved');
#106=APPROVAL(#105,'None');
#107=PERSON('8','Approver','Joe',$,$,$);
#108=ORGANIZATION($,'None','None');
#109=PERSON_AND_ORGANIZATION(#107,#108);
#110=APPROVAL_ROLE('approver');
#111=APPROVAL_PERSON_ORGANIZATION(#109,#106,#110);
#112=COORDINATED_UNIVERSAL_TIME_OFFSET(8,$,.EXACT.);
#113=CALENDAR_DATE(1996,29,5);
#114=LOCAL_TIME(12,0,0.0,#112);
#115=DATE_AND_TIME(#113,#114);
#116=APPROVAL_DATE_TIME(#115,#106);
#117=CC_DESIGN_APPROVAL(#106,(#93));
#118=CARTESIAN_POINT('NONE',(0.0,0.0,0.0));
#119=DIRECTION('NONE',(0.0,0.0,1.0));
#120=DIRECTION('NONE',(1.0,0.0,0.0));
#121=AXIS2_PLACEMENT_3D('NONE',#118,#119,#120);
#122=SHAPE_REPRESENTATION('SR1',(#121),#28);
#123=PRODUCT_DEFINITION_SHAPE('PDS1','Test Part',#93);
#124=SHAPE_DEFINITION_REPRESENTATION(#123,#122);
#125=CARTESIAN_POINT('',(-14.499717881944429,31.12816026475689,33.534559461805571));
#126=DIRECTION('',(0.0,0.0,1.0));
#127=VECTOR('',#126,6.930843098958427);
#128=LINE('',#125,#127);
#129=CARTESIAN_POINT('',(-14.499717881944429,31.12816026475689,40.465402560763998));
#130=TRIMMED_CURVE('1746',#128,(PARAMETER_VALUE(0.0),#125),(PARAMETER_VALUE(1.0),#129),.T.,.PARAMETER.);
#131=CARTESIAN_POINT('',(-14.499717881944429,31.83509385850688,33.5069986979167));
#132=DIRECTION('',(0.0,0.0,1.0));
#133=VECTOR('',#132,6.986653645833393);
#134=LINE('',#131,#133);
#135=CARTESIAN_POINT('',(-14.499717881944429,31.83509385850688,40.493652343750092));
#136=TRIMMED_CURVE('1745',#134,(PARAMETER_VALUE(0.0),#131),(PARAMETER_VALUE(1.0),#135),.T.,.PARAMETER.);
#137=CARTESIAN_POINT('',(-14.499717881944429,31.12816026475689,71.035112847222294));
#138=DIRECTION('',(0.0,0.0,1.0));
#139=VECTOR('',#138,6.930154079861083);
#140=LINE('',#137,#139);
#141=CARTESIAN_POINT('',(-14.499717881944429,31.12816026475689,77.965266927083377));
#142=TRIMMED_CURVE('1744',#140,(PARAMETER_VALUE(0.0),#137),(PARAMETER_VALUE(1.0),#141),.T.,.PARAMETER.);
#143=CARTESIAN_POINT('',(-14.499717881944429,31.83509385850688,71.0068630642362));
#144=DIRECTION('',(0.0,0.0,1.0));
#145=VECTOR('',#144,6.986653645833314);
#146=LINE('',#143,#145);
#147=CARTESIAN_POINT('',(-14.499717881944429,31.83509385850688,77.993516710069514));
#148=TRIMMED_CURVE('1743',#146,(PARAMETER_VALUE(0.0),#143),(PARAMETER_VALUE(1.0),#147),.T.,.PARAMETER.);
#149=CARTESIAN_POINT('',(-14.499717881944425,31.620119900173677,36.999981011284817));
#150=DIRECTION('',(-1.0,0.0,1.000000E-016));
#151=DIRECTION('',(0.0,-1.0,0.0));
#152=AXIS2_PLACEMENT_3D('',#149,#150,#151);
#153=CIRCLE('1742',#152,3.49987250434028);
#154=CARTESIAN_POINT('',(-14.499717881944433,31.620119900173677,74.500189887152771));
#155=DIRECTION('',(-1.0,0.0,1.000000E-016));
#156=DIRECTION('',(0.0,-1.0,0.0));
#157=AXIS2_PLACEMENT_3D('',#154,#155,#156);
#158=CIRCLE('1741',#157,3.50021701388889);
#159=CARTESIAN_POINT('',(-14.499717881944441,0.500227864583287,0.0));
#160=DIRECTION('',(-1.0,0.0,0.0));
#161=DIRECTION('',(0.0,0.0,1.0));
#162=AXIS2_PLACEMENT_3D('',#159,#160,#161);
#163=PLANE('',#162);
#164=CARTESIAN_POINT('',(-14.499717881944441,0.500227864583287,111.5));
#165=VERTEX_POINT('',#164);
#166=CARTESIAN_POINT('',(-14.49971788194444,52.640714518229196,111.5));
#167=VERTEX_POINT('',#166);
#168=CARTESIAN_POINT('',(-14.499717881944441,0.500227864583287,111.5));
#169=DIRECTION('',(0.0,1.0,0.0));
#170=VECTOR('',#169,52.140486653645908);
#171=LINE('',#168,#170);
#172=EDGE_CURVE('',#165,#167,#171,.T.);
#173=ORIENTED_EDGE('',*,*,#172,.T.);
#174=CARTESIAN_POINT('',(-14.49971788194444,52.640714518229196,0.0));
#175=VERTEX_POINT('',#174);
#176=CARTESIAN_POINT('',(-14.49971788194444,52.640714518229196,0.0));
#177=DIRECTION('',(0.0,0.0,1.0));
#178=VECTOR('',#177,111.5);
#179=LINE('',#176,#178);
#180=EDGE_CURVE('',#175,#167,#179,.T.);
#181=ORIENTED_EDGE('',*,*,#180,.F.);
#182=CARTESIAN_POINT('',(-14.499717881944441,0.500227864583287,0.0));
#183=VERTEX_POINT('',#182);
#184=CARTESIAN_POINT('',(-14.49971788194444,52.640714518229196,0.0));
#185=DIRECTION('',(0.0,-1.0,0.0));
#186=VECTOR('',#185,52.140486653645908);
#187=LINE('',#184,#186);
#188=EDGE_CURVE('',#175,#183,#187,.T.);
#189=ORIENTED_EDGE('',*,*,#188,.T.);
#190=CARTESIAN_POINT('',(-14.499717881944441,0.500227864583287,0.0));
#191=DIRECTION('',(0.0,0.0,1.0));
#192=VECTOR('',#191,111.5);
#193=LINE('',#190,#192);
#194=EDGE_CURVE('',#183,#165,#193,.T.);
#195=ORIENTED_EDGE('',*,*,#194,.T.);
#196=EDGE_LOOP('',(#173,#181,#189,#195));
#197=FACE_OUTER_BOUND('',#196,.T.);
#198=ADVANCED_FACE('',(#197),#163,.T.);
#199=CARTESIAN_POINT('',(-14.49971788194444,52.640714518229196,0.0));
#200=DIRECTION('',(-0.707106781186497,0.707106781186598,0.0));
#201=DIRECTION('',(0.0,0.0,1.0));
#202=AXIS2_PLACEMENT_3D('',#199,#200,#201);
#203=PLANE('',#202);
#204=CARTESIAN_POINT('',(-14.000179036458333,53.140253363715232,111.5));
#205=VERTEX_POINT('',#204);
#206=CARTESIAN_POINT('',(-14.49971788194444,52.640714518229196,111.5));
#207=DIRECTION('',(0.707106781186598,0.707106781186497,0.0));
#208=VECTOR('',#207,0.7064546102186);
#209=LINE('',#206,#208);
#210=EDGE_CURVE('',#167,#205,#209,.T.);
#211=ORIENTED_EDGE('',*,*,#210,.T.);
#212=CARTESIAN_POINT('',(-14.000179036458333,53.140253363715232,0.0));
#213=VERTEX_POINT('',#212);
#214=CARTESIAN_POINT('',(-14.000179036458333,53.140253363715232,0.0));
#215=DIRECTION('',(0.0,0.0,1.0));
#216=VECTOR('',#215,111.5);
#217=LINE('',#214,#216);
#218=EDGE_CURVE('',#213,#205,#217,.T.);
#219=ORIENTED_EDGE('',*,*,#218,.F.);
#220=CARTESIAN_POINT('',(-14.000179036458333,53.140253363715232,0.0));
#221=DIRECTION('',(-0.707106781186598,-0.707106781186497,0.0));
#222=VECTOR('',#221,0.7064546102186);
#223=LINE('',#220,#222);
#224=EDGE_CURVE('',#213,#175,#223,.T.);
#225=ORIENTED_EDGE('',*,*,#224,.T.);
#226=ORIENTED_EDGE('',*,*,#180,.T.);
#227=EDGE_LOOP('',(#211,#219,#225,#226));
#228=FACE_OUTER_BOUND('',#227,.T.);
#229=ADVANCED_FACE('',(#228),#203,.T.);
#230=CARTESIAN_POINT('',(-14.000179036458333,53.140253363715232,0.0));
#231=DIRECTION('',(0.0,1.0,0.0));
#232=DIRECTION('',(0.0,0.0,1.0));
#233=AXIS2_PLACEMENT_3D('',#230,#231,#232);
#234=PLANE('',#233);
#235=CARTESIAN_POINT('',(-2.49976128472222,53.140253363715232,111.5));
#236=VERTEX_POINT('',#235);
#237=CARTESIAN_POINT('',(-14.000179036458333,53.140253363715232,111.5));
#238=DIRECTION('',(1.0,0.0,0.0));
#239=VECTOR('',#238,11.500417751736112);
#240=LINE('',#237,#239);
#241=EDGE_CURVE('',#205,#236,#240,.T.);
#242=ORIENTED_EDGE('',*,*,#241,.T.);
#243=CARTESIAN_POINT('',(-2.49976128472222,53.140253363715232,0.0));
#244=VERTEX_POINT('',#243);
#245=CARTESIAN_POINT('',(-2.49976128472222,53.140253363715232,0.0));
#246=DIRECTION('',(0.0,0.0,1.0));
#247=VECTOR('',#246,111.5);
#248=LINE('',#245,#247);
#249=EDGE_CURVE('',#244,#236,#248,.T.);
#250=ORIENTED_EDGE('',*,*,#249,.F.);
#251=CARTESIAN_POINT('',(-2.49976128472222,53.140253363715232,0.0));
#252=DIRECTION('',(-1.0,0.0,0.0));
#253=VECTOR('',#252,11.500417751736112);
#254=LINE('',#251,#253);
#255=EDGE_CURVE('',#244,#213,#254,.T.);
#256=ORIENTED_EDGE('',*,*,#255,.T.);
#257=ORIENTED_EDGE('',*,*,#218,.T.);
#258=EDGE_LOOP('',(#242,#250,#256,#257));
#259=FACE_OUTER_BOUND('',#258,.T.);
#260=ADVANCED_FACE('',(#259),#234,.T.);
#261=CARTESIAN_POINT('',(-2.49976128472222,53.140253363715232,0.0));
#262=DIRECTION('',(-0.707593936907739,0.706619289611745,0.0));
#263=DIRECTION('',(0.0,0.0,1.0));
#264=AXIS2_PLACEMENT_3D('',#261,#262,#263);
#265=PLANE('',#264);
#266=CARTESIAN_POINT('',(-2.000222439236111,53.640481228298547,111.5));
#267=VERTEX_POINT('',#266);
#268=CARTESIAN_POINT('',(-2.49976128472222,53.140253363715232,111.5));
#269=DIRECTION('',(0.706619289611745,0.707593936907739,0.0));
#270=VECTOR('',#269,0.706941988182325);
#271=LINE('',#268,#270);
#272=EDGE_CURVE('',#236,#267,#271,.T.);
#273=ORIENTED_EDGE('',*,*,#272,.T.);
#274=CARTESIAN_POINT('',(-2.000222439236111,53.640481228298547,0.0));
#275=VERTEX_POINT('',#274);
#276=CARTESIAN_POINT('',(-2.000222439236111,53.640481228298547,0.0));
#277=DIRECTION('',(0.0,0.0,1.0));
#278=VECTOR('',#277,111.5);
#279=LINE('',#276,#278);
#280=EDGE_CURVE('',#275,#267,#279,.T.);
#281=ORIENTED_EDGE('',*,*,#280,.F.);
#282=CARTESIAN_POINT('',(-2.000222439236111,53.640481228298547,0.0));
#283=DIRECTION('',(-0.706619289611745,-0.707593936907739,0.0));
#284=VECTOR('',#283,0.706941988182325);
#285=LINE('',#282,#284);
#286=EDGE_CURVE('',#275,#244,#285,.T.);
#287=ORIENTED_EDGE('',*,*,#286,.T.);
#288=ORIENTED_EDGE('',*,*,#249,.T.);
#289=EDGE_LOOP('',(#273,#281,#287,#288));
#290=FACE_OUTER_BOUND('',#289,.T.);
#291=ADVANCED_FACE('',(#290),#265,.T.);
#292=CARTESIAN_POINT('',(-2.000222439236111,53.640481228298547,0.0));
#293=DIRECTION('',(-1.0,0.0,0.0));
#294=DIRECTION('',(0.0,0.0,1.0));
#295=AXIS2_PLACEMENT_3D('',#292,#293,#294);
#296=PLANE('',#295);
#297=CARTESIAN_POINT('',(-2.000222439236111,60.400447591145756,111.5));
#298=VERTEX_POINT('',#297);
#299=CARTESIAN_POINT('',(-2.000222439236111,53.640481228298547,111.5));
#300=DIRECTION('',(0.0,1.0,0.0));
#301=VECTOR('',#300,6.759966362847209);
#302=LINE('',#299,#301);
#303=EDGE_CURVE('',#267,#298,#302,.T.);
#304=ORIENTED_EDGE('',*,*,#303,.T.);
#305=CARTESIAN_POINT('',(-2.000222439236111,60.400447591145756,0.0));
#306=VERTEX_POINT('',#305);
#307=CARTESIAN_POINT('',(-2.000222439236111,60.400447591145756,0.0));
#308=DIRECTION('',(0.0,0.0,1.0));
#309=VECTOR('',#308,111.5);
#310=LINE('',#307,#309);
#311=EDGE_CURVE('',#306,#298,#310,.T.);
#312=ORIENTED_EDGE('',*,*,#311,.F.);
#313=CARTESIAN_POINT('',(-2.000222439236111,60.400447591145756,0.0));
#314=DIRECTION('',(0.0,-1.0,0.0));
#315=VECTOR('',#314,6.759966362847209);
#316=LINE('',#313,#315);
#317=EDGE_CURVE('',#306,#275,#316,.T.);
#318=ORIENTED_EDGE('',*,*,#317,.T.);
#319=ORIENTED_EDGE('',*,*,#280,.T.);
#320=EDGE_LOOP('',(#304,#312,#318,#319));
#321=FACE_OUTER_BOUND('',#320,.T.);
#322=ADVANCED_FACE('',(#321),#296,.T.);
#323=CARTESIAN_POINT('',(-2.000222439236111,60.400447591145756,0.0));
#324=DIRECTION('',(0.0,1.0,0.0));
#325=DIRECTION('',(0.0,0.0,1.0));
#326=AXIS2_PLACEMENT_3D('',#323,#324,#325);
#327=PLANE('',#326);
#328=CARTESIAN_POINT('',(-1.800000E-015,60.400447591145756,111.5));
#329=VERTEX_POINT('',#328);
#330=CARTESIAN_POINT('',(-2.000222439236111,60.400447591145756,111.5));
#331=DIRECTION('',(1.0,0.0,0.0));
#332=VECTOR('',#331,2.000222439236109);
#333=LINE('',#330,#332);
#334=EDGE_CURVE('',#298,#329,#333,.T.);
#335=ORIENTED_EDGE('',*,*,#334,.T.);
#336=CARTESIAN_POINT('',(-1.800000E-015,60.400447591145756,0.0));
#337=VERTEX_POINT('',#336);
#338=CARTESIAN_POINT('',(-1.800000E-015,60.400447591145756,0.0));
#339=DIRECTION('',(0.0,0.0,1.0));
#340=VECTOR('',#339,111.5);
#341=LINE('',#338,#340);
#342=EDGE_CURVE('',#337,#329,#341,.T.);
#343=ORIENTED_EDGE('',*,*,#342,.F.);
#344=CARTESIAN_POINT('',(-1.800000E-015,60.400447591145756,0.0));
#345=DIRECTION('',(-1.0,0.0,0.0));
#346=VECTOR('',#345,2.000222439236109);
#347=LINE('',#344,#346);
#348=EDGE_CURVE('',#337,#306,#347,.T.);
#349=ORIENTED_EDGE('',*,*,#348,.T.);
#350=ORIENTED_EDGE('',*,*,#311,.T.);
#351=EDGE_LOOP('',(#335,#343,#349,#350));
#352=FACE_OUTER_BOUND('',#351,.T.);
#353=ADVANCED_FACE('',(#352),#327,.T.);
#354=CARTESIAN_POINT('',(-1.800000E-015,60.400447591145756,0.0));
#355=DIRECTION('',(1.0,0.0,0.0));
#356=DIRECTION('',(0.0,0.0,-1.0));
#357=AXIS2_PLACEMENT_3D('',#354,#355,#356);
#358=PLANE('',#357);
#359=CARTESIAN_POINT('',(-1.800000E-015,0.50022786458328,111.5));
#360=VERTEX_POINT('',#359);
#361=CARTESIAN_POINT('',(-1.800000E-015,60.400447591145756,111.5));
#362=DIRECTION('',(0.0,-1.0,0.0));
#363=VECTOR('',#362,59.900219726562476);
#364=LINE('',#361,#363);
#365=EDGE_CURVE('',#329,#360,#364,.T.);
#366=ORIENTED_EDGE('',*,*,#365,.T.);
#367=CARTESIAN_POINT('',(-1.800000E-015,0.50022786458328,0.0));
#368=VERTEX_POINT('',#367);
#369=CARTESIAN_POINT('',(-1.800000E-015,0.50022786458328,0.0));
#370=DIRECTION('',(0.0,0.0,1.0));
#371=VECTOR('',#370,111.5);
#372=LINE('',#369,#371);
#373=EDGE_CURVE('',#368,#360,#372,.T.);
#374=ORIENTED_EDGE('',*,*,#373,.F.);
#375=CARTESIAN_POINT('',(-1.800000E-015,0.50022786458328,0.0));
#376=DIRECTION('',(0.0,1.0,0.0));
#377=VECTOR('',#376,59.900219726562476);
#378=LINE('',#375,#377);
#379=EDGE_CURVE('',#368,#337,#378,.T.);
#380=ORIENTED_EDGE('',*,*,#379,.T.);
#381=ORIENTED_EDGE('',*,*,#342,.T.);
#382=EDGE_LOOP('',(#366,#374,#380,#381));
#383=FACE_OUTER_BOUND('',#382,.T.);
#384=ADVANCED_FACE('',(#383),#358,.T.);
#385=CARTESIAN_POINT('',(-1.800000E-015,0.50022786458328,0.0));
#386=DIRECTION('',(0.707106781186512,-0.707106781186583,0.0));
#387=DIRECTION('',(0.0,0.0,-1.0));
#388=AXIS2_PLACEMENT_3D('',#385,#386,#387);
#389=PLANE('',#388);
#390=CARTESIAN_POINT('',(-0.500227864583332,0.0,111.5));
#391=VERTEX_POINT('',#390);
#392=CARTESIAN_POINT('',(-1.776357E-015,0.50022786458328,111.5));
#393=DIRECTION('',(-0.707106781186583,-0.707106781186512,0.0));
#394=VECTOR('',#393,0.707429030370642);
#395=LINE('',#392,#394);
#396=EDGE_CURVE('',#360,#391,#395,.T.);
#397=ORIENTED_EDGE('',*,*,#396,.T.);
#398=CARTESIAN_POINT('',(-0.500227864583332,0.0,0.0));
#399=VERTEX_POINT('',#398);
#400=CARTESIAN_POINT('',(-0.500227864583332,0.0,0.0));
#401=DIRECTION('',(0.0,0.0,1.0));
#402=VECTOR('',#401,111.5);
#403=LINE('',#400,#402);
#404=EDGE_CURVE('',#399,#391,#403,.T.);
#405=ORIENTED_EDGE('',*,*,#404,.F.);
#406=CARTESIAN_POINT('',(-0.500227864583332,0.0,0.0));
#407=DIRECTION('',(0.707106781186583,0.707106781186512,0.0));
#408=VECTOR('',#407,0.707429030370642);
#409=LINE('',#406,#408);
#410=EDGE_CURVE('',#399,#368,#409,.T.);
#411=ORIENTED_EDGE('',*,*,#410,.T.);
#412=ORIENTED_EDGE('',*,*,#373,.T.);
#413=EDGE_LOOP('',(#397,#405,#411,#412));
#414=FACE_OUTER_BOUND('',#413,.T.);
#415=ADVANCED_FACE('',(#414),#389,.T.);
#416=CARTESIAN_POINT('',(-0.500227864583332,0.0,0.0));
#417=DIRECTION('',(0.0,-1.0,0.0));
#418=DIRECTION('',(0.0,0.0,-1.0));
#419=AXIS2_PLACEMENT_3D('',#416,#417,#418);
#420=PLANE('',#419);
#421=CARTESIAN_POINT('',(-14.000179036458324,-7.105427E-015,111.5));
#422=VERTEX_POINT('',#421);
#423=CARTESIAN_POINT('',(-0.500227864583332,0.0,111.5));
#424=DIRECTION('',(-1.0,0.0,0.0));
#425=VECTOR('',#424,13.499951171874992);
#426=LINE('',#423,#425);
#427=EDGE_CURVE('',#391,#422,#426,.T.);
#428=ORIENTED_EDGE('',*,*,#427,.T.);
#429=CARTESIAN_POINT('',(-14.000179036458324,-7.105427E-015,0.0));
#430=VERTEX_POINT('',#429);
#431=CARTESIAN_POINT('',(-14.000179036458324,-7.105427E-015,0.0));
#432=DIRECTION('',(0.0,0.0,1.0));
#433=VECTOR('',#432,111.5);
#434=LINE('',#431,#433);
#435=EDGE_CURVE('',#430,#422,#434,.T.);
#436=ORIENTED_EDGE('',*,*,#435,.F.);
#437=CARTESIAN_POINT('',(-14.000179036458324,-7.105427E-015,0.0));
#438=DIRECTION('',(1.0,0.0,0.0));
#439=VECTOR('',#438,13.499951171874992);
#440=LINE('',#437,#439);
#441=EDGE_CURVE('',#430,#399,#440,.T.);
#442=ORIENTED_EDGE('',*,*,#441,.T.);
#443=ORIENTED_EDGE('',*,*,#404,.T.);
#444=EDGE_LOOP('',(#428,#436,#442,#443));
#445=FACE_OUTER_BOUND('',#444,.T.);
#446=ADVANCED_FACE('',(#445),#420,.T.);
#447=CARTESIAN_POINT('',(-14.000179036458324,-7.105427E-015,0.0));
#448=DIRECTION('',(-0.707593936907718,-0.706619289611766,0.0));
#449=DIRECTION('',(0.0,0.0,1.0));
#450=AXIS2_PLACEMENT_3D('',#447,#448,#449);
#451=PLANE('',#450);
#452=CARTESIAN_POINT('',(-14.000179036458324,-7.105427E-015,111.5));
#453=DIRECTION('',(-0.706619289611766,0.707593936907718,0.0));
#454=VECTOR('',#453,0.706941988182316);
#455=LINE('',#452,#454);
#456=EDGE_CURVE('',#422,#165,#455,.T.);
#457=ORIENTED_EDGE('',*,*,#456,.T.);
#458=ORIENTED_EDGE('',*,*,#194,.F.);
#459=CARTESIAN_POINT('',(-14.499717881944441,0.500227864583287,0.0));
#460=DIRECTION('',(0.706619289611766,-0.707593936907718,0.0));
#461=VECTOR('',#460,0.706941988182316);
#462=LINE('',#459,#461);
#463=EDGE_CURVE('',#183,#430,#462,.T.);
#464=ORIENTED_EDGE('',*,*,#463,.T.);
#465=ORIENTED_EDGE('',*,*,#435,.T.);
#466=EDGE_LOOP('',(#457,#458,#464,#465));
#467=FACE_OUTER_BOUND('',#466,.T.);
#468=ADVANCED_FACE('',(#467),#451,.T.);
#469=CARTESIAN_POINT('',(-6.635366541078108,29.61902803110236,111.5));
#470=DIRECTION('',(0.0,0.0,1.0));
#471=DIRECTION('',(1.0,0.0,0.0));
#472=AXIS2_PLACEMENT_3D('',#469,#470,#471);
#473=PLANE('',#472);
#474=ORIENTED_EDGE('',*,*,#172,.F.);
#475=ORIENTED_EDGE('',*,*,#456,.F.);
#476=ORIENTED_EDGE('',*,*,#427,.F.);
#477=ORIENTED_EDGE('',*,*,#396,.F.);
#478=ORIENTED_EDGE('',*,*,#365,.F.);
#479=ORIENTED_EDGE('',*,*,#334,.F.);
#480=ORIENTED_EDGE('',*,*,#303,.F.);
#481=ORIENTED_EDGE('',*,*,#272,.F.);
#482=ORIENTED_EDGE('',*,*,#241,.F.);
#483=ORIENTED_EDGE('',*,*,#210,.F.);
#484=EDGE_LOOP('',(#474,#475,#476,#477,#478,#479,#480,#481,#482,#483));
#485=FACE_OUTER_BOUND('',#484,.T.);
#486=ADVANCED_FACE('',(#485),#473,.T.);
#487=CARTESIAN_POINT('',(-6.635366541078108,29.61902803110236,0.0));
#488=DIRECTION('',(0.0,0.0,1.0));
#489=DIRECTION('',(1.0,0.0,0.0));
#490=AXIS2_PLACEMENT_3D('',#487,#488,#489);
#491=PLANE('',#490);
#492=ORIENTED_EDGE('',*,*,#463,.F.);
#493=ORIENTED_EDGE('',*,*,#188,.F.);
#494=ORIENTED_EDGE('',*,*,#224,.F.);
#495=ORIENTED_EDGE('',*,*,#255,.F.);
#496=ORIENTED_EDGE('',*,*,#286,.F.);
#497=ORIENTED_EDGE('',*,*,#317,.F.);
#498=ORIENTED_EDGE('',*,*,#348,.F.);
#499=ORIENTED_EDGE('',*,*,#379,.F.);
#500=ORIENTED_EDGE('',*,*,#410,.F.);
#501=ORIENTED_EDGE('',*,*,#441,.F.);
#502=EDGE_LOOP('',(#492,#493,#494,#495,#496,#497,#498,#499,#500,#501));
#503=FACE_OUTER_BOUND('',#502,.T.);
#504=ADVANCED_FACE('',(#503),#491,.F.);
#505=CLOSED_SHELL('',(#198,#229,#260,#291,#322,#353,#384,#415,#446,#468,#486,#504));
#506=MANIFOLD_SOLID_BREP('1740',#505);
#507=ADVANCED_BREP_SHAPE_REPRESENTATION('ABSR1',(#506),#28);
#508=SHAPE_REPRESENTATION_RELATIONSHIP('SRRPL1','',#507,#122);
#509=GEOMETRIC_CURVE_SET('GCS1',(#130,#136,#142,#148,#153,#158));
#510=GEOMETRICALLY_BOUNDED_WIREFRAME_SHAPE_REPRESENTATION('GBWSR1',(#509),#28);
#511=SHAPE_REPRESENTATION_RELATIONSHIP('SRRPL2','',#510,#122);
ENDSEC;
END-ISO-10303-21;
