ISO-10303-21;
HEADER;
/* Generated by software containing ST-Developer
 * from STEP Tools, Inc. (www.steptools.com) 
 */
/* OPTION: using custom schema-name function */

FILE_DESCRIPTION(
/* description */ (''),
/* implementation_level */ '2;1');

FILE_NAME(
/* name */ '11BA1721_Catalog.stp',
/* time_stamp */ '2020-09-11T13:19:18+02:00',
/* author */ (''),
/* organization */ (''),
/* preprocessor_version */ 'ST-DEVELOPER v16',
/* originating_system */ 'SIEMENS PLM Software NX 10.0',
/* authorisation */ '');

FILE_SCHEMA (('AP203_CONFIGURATION_CONTROLLED_3D_DESIGN_OF_MECHANICAL_PARTS_AND_ASSEMBLIES_MIM_LF { 1 0 10303 403 2 1 2}'));
ENDSEC;

DATA;
#10=PROPERTY_DEFINITION_REPRESENTATION(#14,#12);
#11=PROPERTY_DEFINITION_REPRESENTATION(#15,#13);
#12=REPRESENTATION('',(#16),#497);
#13=REPRESENTATION('',(#17),#497);
#14=PROPERTY_DEFINITION('pmi validation property','',#89);
#15=PROPERTY_DEFINITION('pmi validation property','',#89);
#16=VALUE_REPRESENTATION_ITEM('number of annotations',COUNT_MEASURE(0.));
#17=VALUE_REPRESENTATION_ITEM('number of views',COUNT_MEASURE(0.));
#18=SHAPE_REPRESENTATION_RELATIONSHIP('None',
'relationship between Rugg0D24EC7Dhr48-None and Rugg0D24EC7Dhr48-None',
#100,#19);
#19=ADVANCED_BREP_SHAPE_REPRESENTATION('Rugg0D24EC7Dhr48-None',(#101),#497);
#20=CC_DESIGN_APPROVAL(#32,(#90));
#21=CC_DESIGN_APPROVAL(#33,(#92));
#22=CC_DESIGN_APPROVAL(#34,(#39));
#23=APPROVAL_PERSON_ORGANIZATION(#77,#32,#26);
#24=APPROVAL_PERSON_ORGANIZATION(#78,#33,#27);
#25=APPROVAL_PERSON_ORGANIZATION(#79,#34,#28);
#26=APPROVAL_ROLE('approver');
#27=APPROVAL_ROLE('approver');
#28=APPROVAL_ROLE('approver');
#29=APPROVAL_DATE_TIME(#47,#32);
#30=APPROVAL_DATE_TIME(#48,#33);
#31=APPROVAL_DATE_TIME(#49,#34);
#32=APPROVAL(#35,' ');
#33=APPROVAL(#36,' ');
#34=APPROVAL(#37,' ');
#35=APPROVAL_STATUS('not_yet_approved');
#36=APPROVAL_STATUS('not_yet_approved');
#37=APPROVAL_STATUS('not_yet_approved');
#38=CC_DESIGN_SECURITY_CLASSIFICATION(#39,(#92));
#39=SECURITY_CLASSIFICATION(' ',' ',#40);
#40=SECURITY_CLASSIFICATION_LEVEL('confidential');
#41=CC_DESIGN_DATE_AND_TIME_ASSIGNMENT(#45,#43,(#90));
#42=CC_DESIGN_DATE_AND_TIME_ASSIGNMENT(#46,#44,(#39));
#43=DATE_TIME_ROLE('creation_date');
#44=DATE_TIME_ROLE('classification_date');
#45=DATE_AND_TIME(#60,#50);
#46=DATE_AND_TIME(#61,#51);
#47=DATE_AND_TIME(#62,#52);
#48=DATE_AND_TIME(#63,#53);
#49=DATE_AND_TIME(#64,#54);
#50=LOCAL_TIME(0,0,0.,#55);
#51=LOCAL_TIME(0,0,0.,#56);
#52=LOCAL_TIME(0,0,0.,#57);
#53=LOCAL_TIME(0,0,0.,#58);
#54=LOCAL_TIME(0,0,0.,#59);
#55=COORDINATED_UNIVERSAL_TIME_OFFSET(0,0,.BEHIND.);
#56=COORDINATED_UNIVERSAL_TIME_OFFSET(0,0,.BEHIND.);
#57=COORDINATED_UNIVERSAL_TIME_OFFSET(0,0,.BEHIND.);
#58=COORDINATED_UNIVERSAL_TIME_OFFSET(0,0,.BEHIND.);
#59=COORDINATED_UNIVERSAL_TIME_OFFSET(0,0,.BEHIND.);
#60=CALENDAR_DATE(0,1,1);
#61=CALENDAR_DATE(0,1,1);
#62=CALENDAR_DATE(0,1,1);
#63=CALENDAR_DATE(0,1,1);
#64=CALENDAR_DATE(0,1,1);
#65=CC_DESIGN_PERSON_AND_ORGANIZATION_ASSIGNMENT(#73,#69,(#90,#92));
#66=CC_DESIGN_PERSON_AND_ORGANIZATION_ASSIGNMENT(#74,#70,(#94));
#67=CC_DESIGN_PERSON_AND_ORGANIZATION_ASSIGNMENT(#75,#71,(#92));
#68=CC_DESIGN_PERSON_AND_ORGANIZATION_ASSIGNMENT(#76,#72,(#39));
#69=PERSON_AND_ORGANIZATION_ROLE('creator');
#70=PERSON_AND_ORGANIZATION_ROLE('design_owner');
#71=PERSON_AND_ORGANIZATION_ROLE('design_supplier');
#72=PERSON_AND_ORGANIZATION_ROLE('classification_officer');
#73=PERSON_AND_ORGANIZATION(#87,#80);
#74=PERSON_AND_ORGANIZATION(#87,#81);
#75=PERSON_AND_ORGANIZATION(#87,#82);
#76=PERSON_AND_ORGANIZATION(#87,#83);
#77=PERSON_AND_ORGANIZATION(#87,#84);
#78=PERSON_AND_ORGANIZATION(#87,#85);
#79=PERSON_AND_ORGANIZATION(#87,#86);
#80=ORGANIZATION(' ',' ',' ');
#81=ORGANIZATION(' ',' ',' ');
#82=ORGANIZATION(' ',' ',' ');
#83=ORGANIZATION(' ',' ',' ');
#84=ORGANIZATION(' ',' ',' ');
#85=ORGANIZATION(' ',' ',' ');
#86=ORGANIZATION(' ',' ',' ');
#87=PERSON(' ',' ',' ',(' '),$,$);
#88=SHAPE_DEFINITION_REPRESENTATION(#89,#100);
#89=PRODUCT_DEFINITION_SHAPE('','',#90);
#90=PRODUCT_DEFINITION(' ','',#92,#91);
#91=DESIGN_CONTEXT('',#99,'design');
#92=PRODUCT_DEFINITION_FORMATION_WITH_SPECIFIED_SOURCE(' ',' ',#94,
 .NOT_KNOWN.);
#93=PRODUCT_RELATED_PRODUCT_CATEGORY('detail','',(#94));
#94=PRODUCT('Rugg0D24EC7Dhr48','Rugg0D24EC7Dhr48',' ',(#97));
#95=PRODUCT_CATEGORY('part',' ');
#96=PRODUCT_CATEGORY(' ','');
#97=MECHANICAL_CONTEXT(' ',#99,'mechanical');
#98=APPLICATION_PROTOCOL_DEFINITION('international standard',
'config_control_design',2010,#99);
#99=APPLICATION_CONTEXT(
'configuration controlled 3D designs of mechanical parts and assemblie
s');
#100=SHAPE_REPRESENTATION('Rugg0D24EC7Dhr48-None',(#331),#497);
#101=MANIFOLD_SOLID_BREP('',#102);
#102=CLOSED_SHELL('',(#138,#139,#140,#141,#142,#143,#144,#145,#146,#147,
#148,#149,#150));
#103=CYLINDRICAL_SURFACE('',#337,5.5);
#104=CYLINDRICAL_SURFACE('',#340,5.5);
#105=CYLINDRICAL_SURFACE('',#344,5.5);
#106=CYLINDRICAL_SURFACE('',#355,2.);
#107=CYLINDRICAL_SURFACE('',#356,2.);
#108=CYLINDRICAL_SURFACE('',#357,2.);
#109=CYLINDRICAL_SURFACE('',#358,2.);
#110=FACE_BOUND('',#168,.T.);
#111=FACE_BOUND('',#169,.T.);
#112=FACE_BOUND('',#170,.T.);
#113=FACE_BOUND('',#171,.T.);
#114=FACE_BOUND('',#173,.T.);
#115=FACE_BOUND('',#174,.T.);
#116=FACE_BOUND('',#175,.T.);
#117=FACE_BOUND('',#176,.T.);
#118=FACE_BOUND('',#177,.T.);
#119=FACE_BOUND('',#178,.T.);
#120=FACE_BOUND('',#179,.T.);
#121=FACE_BOUND('',#180,.T.);
#122=FACE_BOUND('',#181,.T.);
#123=FACE_BOUND('',#182,.T.);
#124=CIRCLE('',#335,5.5);
#125=CIRCLE('',#336,5.5);
#126=CIRCLE('',#338,5.5);
#127=CIRCLE('',#339,5.5);
#128=CIRCLE('',#342,5.5);
#129=CIRCLE('',#343,5.5);
#130=CIRCLE('',#345,2.);
#131=CIRCLE('',#346,2.);
#132=CIRCLE('',#347,2.);
#133=CIRCLE('',#348,2.);
#134=CIRCLE('',#350,2.);
#135=CIRCLE('',#351,2.);
#136=CIRCLE('',#352,2.);
#137=CIRCLE('',#353,2.);
#138=ADVANCED_FACE('',(#157),#151,.F.);
#139=ADVANCED_FACE('',(#158),#152,.F.);
#140=ADVANCED_FACE('',(#159),#153,.F.);
#141=ADVANCED_FACE('',(#110,#111),#103,.F.);
#142=ADVANCED_FACE('',(#112,#113),#104,.F.);
#143=ADVANCED_FACE('',(#160),#154,.F.);
#144=ADVANCED_FACE('',(#114,#115),#105,.F.);
#145=ADVANCED_FACE('',(#116,#117,#118,#119),#155,.T.);
#146=ADVANCED_FACE('',(#120,#121,#122,#123),#156,.F.);
#147=ADVANCED_FACE('',(#161),#106,.T.);
#148=ADVANCED_FACE('',(#162),#107,.T.);
#149=ADVANCED_FACE('',(#163),#108,.T.);
#150=ADVANCED_FACE('',(#164),#109,.T.);
#151=PLANE('',#332);
#152=PLANE('',#333);
#153=PLANE('',#334);
#154=PLANE('',#341);
#155=PLANE('',#349);
#156=PLANE('',#354);
#157=FACE_OUTER_BOUND('',#165,.T.);
#158=FACE_OUTER_BOUND('',#166,.T.);
#159=FACE_OUTER_BOUND('',#167,.T.);
#160=FACE_OUTER_BOUND('',#172,.T.);
#161=FACE_OUTER_BOUND('',#183,.T.);
#162=FACE_OUTER_BOUND('',#184,.T.);
#163=FACE_OUTER_BOUND('',#185,.T.);
#164=FACE_OUTER_BOUND('',#186,.T.);
#165=EDGE_LOOP('',(#187,#188,#189,#190));
#166=EDGE_LOOP('',(#191,#192,#193,#194));
#167=EDGE_LOOP('',(#195,#196,#197,#198));
#168=EDGE_LOOP('',(#199));
#169=EDGE_LOOP('',(#200));
#170=EDGE_LOOP('',(#201));
#171=EDGE_LOOP('',(#202));
#172=EDGE_LOOP('',(#203,#204,#205,#206));
#173=EDGE_LOOP('',(#207));
#174=EDGE_LOOP('',(#208));
#175=EDGE_LOOP('',(#209,#210,#211,#212,#213,#214,#215,#216));
#176=EDGE_LOOP('',(#217));
#177=EDGE_LOOP('',(#218));
#178=EDGE_LOOP('',(#219));
#179=EDGE_LOOP('',(#220,#221,#222,#223,#224,#225,#226,#227));
#180=EDGE_LOOP('',(#228));
#181=EDGE_LOOP('',(#229));
#182=EDGE_LOOP('',(#230));
#183=EDGE_LOOP('',(#231,#232,#233,#234));
#184=EDGE_LOOP('',(#235,#236,#237,#238));
#185=EDGE_LOOP('',(#239,#240,#241,#242));
#186=EDGE_LOOP('',(#243,#244,#245,#246));
#187=ORIENTED_EDGE('',*,*,#269,.F.);
#188=ORIENTED_EDGE('',*,*,#270,.T.);
#189=ORIENTED_EDGE('',*,*,#271,.T.);
#190=ORIENTED_EDGE('',*,*,#272,.T.);
#191=ORIENTED_EDGE('',*,*,#273,.F.);
#192=ORIENTED_EDGE('',*,*,#274,.T.);
#193=ORIENTED_EDGE('',*,*,#275,.T.);
#194=ORIENTED_EDGE('',*,*,#276,.T.);
#195=ORIENTED_EDGE('',*,*,#277,.T.);
#196=ORIENTED_EDGE('',*,*,#278,.T.);
#197=ORIENTED_EDGE('',*,*,#279,.F.);
#198=ORIENTED_EDGE('',*,*,#280,.T.);
#199=ORIENTED_EDGE('',*,*,#281,.T.);
#200=ORIENTED_EDGE('',*,*,#282,.F.);
#201=ORIENTED_EDGE('',*,*,#283,.T.);
#202=ORIENTED_EDGE('',*,*,#284,.F.);
#203=ORIENTED_EDGE('',*,*,#285,.F.);
#204=ORIENTED_EDGE('',*,*,#286,.T.);
#205=ORIENTED_EDGE('',*,*,#287,.T.);
#206=ORIENTED_EDGE('',*,*,#288,.T.);
#207=ORIENTED_EDGE('',*,*,#289,.T.);
#208=ORIENTED_EDGE('',*,*,#290,.F.);
#209=ORIENTED_EDGE('',*,*,#279,.T.);
#210=ORIENTED_EDGE('',*,*,#291,.T.);
#211=ORIENTED_EDGE('',*,*,#285,.T.);
#212=ORIENTED_EDGE('',*,*,#292,.T.);
#213=ORIENTED_EDGE('',*,*,#269,.T.);
#214=ORIENTED_EDGE('',*,*,#293,.T.);
#215=ORIENTED_EDGE('',*,*,#273,.T.);
#216=ORIENTED_EDGE('',*,*,#294,.T.);
#217=ORIENTED_EDGE('',*,*,#283,.F.);
#218=ORIENTED_EDGE('',*,*,#281,.F.);
#219=ORIENTED_EDGE('',*,*,#289,.F.);
#220=ORIENTED_EDGE('',*,*,#287,.F.);
#221=ORIENTED_EDGE('',*,*,#295,.T.);
#222=ORIENTED_EDGE('',*,*,#277,.F.);
#223=ORIENTED_EDGE('',*,*,#296,.T.);
#224=ORIENTED_EDGE('',*,*,#275,.F.);
#225=ORIENTED_EDGE('',*,*,#297,.T.);
#226=ORIENTED_EDGE('',*,*,#271,.F.);
#227=ORIENTED_EDGE('',*,*,#298,.T.);
#228=ORIENTED_EDGE('',*,*,#284,.T.);
#229=ORIENTED_EDGE('',*,*,#282,.T.);
#230=ORIENTED_EDGE('',*,*,#290,.T.);
#231=ORIENTED_EDGE('',*,*,#291,.F.);
#232=ORIENTED_EDGE('',*,*,#278,.F.);
#233=ORIENTED_EDGE('',*,*,#295,.F.);
#234=ORIENTED_EDGE('',*,*,#286,.F.);
#235=ORIENTED_EDGE('',*,*,#292,.F.);
#236=ORIENTED_EDGE('',*,*,#288,.F.);
#237=ORIENTED_EDGE('',*,*,#298,.F.);
#238=ORIENTED_EDGE('',*,*,#270,.F.);
#239=ORIENTED_EDGE('',*,*,#293,.F.);
#240=ORIENTED_EDGE('',*,*,#272,.F.);
#241=ORIENTED_EDGE('',*,*,#297,.F.);
#242=ORIENTED_EDGE('',*,*,#274,.F.);
#243=ORIENTED_EDGE('',*,*,#294,.F.);
#244=ORIENTED_EDGE('',*,*,#276,.F.);
#245=ORIENTED_EDGE('',*,*,#296,.F.);
#246=ORIENTED_EDGE('',*,*,#280,.F.);
#247=VERTEX_POINT('',#433);
#248=VERTEX_POINT('',#434);
#249=VERTEX_POINT('',#436);
#250=VERTEX_POINT('',#438);
#251=VERTEX_POINT('',#442);
#252=VERTEX_POINT('',#443);
#253=VERTEX_POINT('',#445);
#254=VERTEX_POINT('',#447);
#255=VERTEX_POINT('',#451);
#256=VERTEX_POINT('',#452);
#257=VERTEX_POINT('',#454);
#258=VERTEX_POINT('',#456);
#259=VERTEX_POINT('',#460);
#260=VERTEX_POINT('',#462);
#261=VERTEX_POINT('',#465);
#262=VERTEX_POINT('',#467);
#263=VERTEX_POINT('',#470);
#264=VERTEX_POINT('',#471);
#265=VERTEX_POINT('',#473);
#266=VERTEX_POINT('',#475);
#267=VERTEX_POINT('',#479);
#268=VERTEX_POINT('',#481);
#269=EDGE_CURVE('',#247,#248,#299,.T.);
#270=EDGE_CURVE('',#247,#249,#300,.T.);
#271=EDGE_CURVE('',#249,#250,#301,.T.);
#272=EDGE_CURVE('',#250,#248,#302,.T.);
#273=EDGE_CURVE('',#251,#252,#303,.T.);
#274=EDGE_CURVE('',#251,#253,#304,.T.);
#275=EDGE_CURVE('',#253,#254,#305,.T.);
#276=EDGE_CURVE('',#254,#252,#306,.T.);
#277=EDGE_CURVE('',#255,#256,#307,.T.);
#278=EDGE_CURVE('',#256,#257,#308,.T.);
#279=EDGE_CURVE('',#258,#257,#309,.T.);
#280=EDGE_CURVE('',#258,#255,#310,.T.);
#281=EDGE_CURVE('',#259,#259,#124,.T.);
#282=EDGE_CURVE('',#260,#260,#125,.T.);
#283=EDGE_CURVE('',#261,#261,#126,.T.);
#284=EDGE_CURVE('',#262,#262,#127,.T.);
#285=EDGE_CURVE('',#263,#264,#311,.T.);
#286=EDGE_CURVE('',#263,#265,#312,.T.);
#287=EDGE_CURVE('',#265,#266,#313,.T.);
#288=EDGE_CURVE('',#266,#264,#314,.T.);
#289=EDGE_CURVE('',#267,#267,#128,.T.);
#290=EDGE_CURVE('',#268,#268,#129,.T.);
#291=EDGE_CURVE('',#257,#263,#130,.T.);
#292=EDGE_CURVE('',#264,#247,#131,.T.);
#293=EDGE_CURVE('',#248,#251,#132,.T.);
#294=EDGE_CURVE('',#252,#258,#133,.T.);
#295=EDGE_CURVE('',#265,#256,#134,.T.);
#296=EDGE_CURVE('',#255,#254,#135,.T.);
#297=EDGE_CURVE('',#253,#250,#136,.T.);
#298=EDGE_CURVE('',#249,#266,#137,.T.);
#299=LINE('',#432,#315);
#300=LINE('',#435,#316);
#301=LINE('',#437,#317);
#302=LINE('',#439,#318);
#303=LINE('',#441,#319);
#304=LINE('',#444,#320);
#305=LINE('',#446,#321);
#306=LINE('',#448,#322);
#307=LINE('',#450,#323);
#308=LINE('',#453,#324);
#309=LINE('',#455,#325);
#310=LINE('',#457,#326);
#311=LINE('',#469,#327);
#312=LINE('',#472,#328);
#313=LINE('',#474,#329);
#314=LINE('',#476,#330);
#315=VECTOR('',#361,1.);
#316=VECTOR('',#362,1.);
#317=VECTOR('',#363,1.);
#318=VECTOR('',#364,1.);
#319=VECTOR('',#367,1.);
#320=VECTOR('',#368,1.);
#321=VECTOR('',#369,1.);
#322=VECTOR('',#370,1.);
#323=VECTOR('',#373,1.);
#324=VECTOR('',#374,1.);
#325=VECTOR('',#375,1.);
#326=VECTOR('',#376,1.);
#327=VECTOR('',#391,1.);
#328=VECTOR('',#392,1.);
#329=VECTOR('',#393,1.);
#330=VECTOR('',#394,1.);
#331=AXIS2_PLACEMENT_3D('',#431,#359,#360);
#332=AXIS2_PLACEMENT_3D('',#440,#365,#366);
#333=AXIS2_PLACEMENT_3D('',#449,#371,#372);
#334=AXIS2_PLACEMENT_3D('',#458,#377,#378);
#335=AXIS2_PLACEMENT_3D('',#459,#379,#380);
#336=AXIS2_PLACEMENT_3D('',#461,#381,#382);
#337=AXIS2_PLACEMENT_3D('',#463,#383,#384);
#338=AXIS2_PLACEMENT_3D('',#464,#385,#386);
#339=AXIS2_PLACEMENT_3D('',#466,#387,#388);
#340=AXIS2_PLACEMENT_3D('',#468,#389,#390);
#341=AXIS2_PLACEMENT_3D('',#477,#395,#396);
#342=AXIS2_PLACEMENT_3D('',#478,#397,#398);
#343=AXIS2_PLACEMENT_3D('',#480,#399,#400);
#344=AXIS2_PLACEMENT_3D('',#482,#401,#402);
#345=AXIS2_PLACEMENT_3D('',#483,#403,#404);
#346=AXIS2_PLACEMENT_3D('',#484,#405,#406);
#347=AXIS2_PLACEMENT_3D('',#485,#407,#408);
#348=AXIS2_PLACEMENT_3D('',#486,#409,#410);
#349=AXIS2_PLACEMENT_3D('',#487,#411,#412);
#350=AXIS2_PLACEMENT_3D('',#488,#413,#414);
#351=AXIS2_PLACEMENT_3D('',#489,#415,#416);
#352=AXIS2_PLACEMENT_3D('',#490,#417,#418);
#353=AXIS2_PLACEMENT_3D('',#491,#419,#420);
#354=AXIS2_PLACEMENT_3D('',#492,#421,#422);
#355=AXIS2_PLACEMENT_3D('',#493,#423,#424);
#356=AXIS2_PLACEMENT_3D('',#494,#425,#426);
#357=AXIS2_PLACEMENT_3D('',#495,#427,#428);
#358=AXIS2_PLACEMENT_3D('',#496,#429,#430);
#359=DIRECTION('',(0.,0.,1.));
#360=DIRECTION('',(1.,0.,0.));
#361=DIRECTION('',(1.38777878078145E-15,-1.,0.));
#362=DIRECTION('',(0.,0.,-1.));
#363=DIRECTION('',(1.38777878078145E-15,-1.,0.));
#364=DIRECTION('',(0.,0.,1.));
#365=DIRECTION('',(1.,1.38777878078145E-15,0.));
#366=DIRECTION('',(-1.38777878078145E-15,1.,0.));
#367=DIRECTION('',(1.,0.,0.));
#368=DIRECTION('',(0.,0.,-1.));
#369=DIRECTION('',(1.,0.,0.));
#370=DIRECTION('',(0.,0.,1.));
#371=DIRECTION('',(0.,1.,0.));
#372=DIRECTION('',(0.,0.,1.));
#373=DIRECTION('',(-1.38777878078145E-15,1.,0.));
#374=DIRECTION('',(0.,0.,1.));
#375=DIRECTION('',(-1.38777878078145E-15,1.,0.));
#376=DIRECTION('',(0.,0.,-1.));
#377=DIRECTION('',(-1.,-1.38777878078145E-15,0.));
#378=DIRECTION('',(1.38777878078145E-15,-1.,0.));
#379=DIRECTION('',(0.,0.,1.));
#380=DIRECTION('',(1.,0.,0.));
#381=DIRECTION('',(0.,0.,1.));
#382=DIRECTION('',(1.,0.,0.));
#383=DIRECTION('',(0.,0.,-1.));
#384=DIRECTION('',(-1.,0.,0.));
#385=DIRECTION('',(0.,0.,1.));
#386=DIRECTION('',(1.,0.,0.));
#387=DIRECTION('',(0.,0.,1.));
#388=DIRECTION('',(1.,0.,0.));
#389=DIRECTION('',(0.,0.,-1.));
#390=DIRECTION('',(-1.,0.,0.));
#391=DIRECTION('',(-1.,0.,0.));
#392=DIRECTION('',(0.,0.,-1.));
#393=DIRECTION('',(-1.,0.,0.));
#394=DIRECTION('',(0.,0.,1.));
#395=DIRECTION('',(0.,-1.,0.));
#396=DIRECTION('',(0.,0.,-1.));
#397=DIRECTION('',(0.,0.,1.));
#398=DIRECTION('',(1.,0.,0.));
#399=DIRECTION('',(0.,0.,1.));
#400=DIRECTION('',(1.,0.,0.));
#401=DIRECTION('',(0.,0.,-1.));
#402=DIRECTION('',(-1.,0.,0.));
#403=DIRECTION('',(0.,0.,1.));
#404=DIRECTION('',(1.,0.,0.));
#405=DIRECTION('',(0.,0.,1.));
#406=DIRECTION('',(1.,0.,0.));
#407=DIRECTION('',(0.,0.,1.));
#408=DIRECTION('',(1.,0.,0.));
#409=DIRECTION('',(0.,0.,1.));
#410=DIRECTION('',(1.,0.,0.));
#411=DIRECTION('',(0.,0.,1.));
#412=DIRECTION('',(1.,0.,0.));
#413=DIRECTION('',(0.,0.,-1.));
#414=DIRECTION('',(1.,0.,0.));
#415=DIRECTION('',(0.,0.,-1.));
#416=DIRECTION('',(1.,0.,0.));
#417=DIRECTION('',(0.,0.,-1.));
#418=DIRECTION('',(1.,0.,0.));
#419=DIRECTION('',(0.,0.,-1.));
#420=DIRECTION('',(1.,0.,0.));
#421=DIRECTION('',(0.,0.,1.));
#422=DIRECTION('',(1.,0.,0.));
#423=DIRECTION('',(0.,0.,-1.));
#424=DIRECTION('',(-1.,0.,0.));
#425=DIRECTION('',(0.,0.,-1.));
#426=DIRECTION('',(-1.,0.,0.));
#427=DIRECTION('',(0.,0.,-1.));
#428=DIRECTION('',(-1.,0.,0.));
#429=DIRECTION('',(0.,0.,-1.));
#430=DIRECTION('',(-1.,0.,0.));
#431=CARTESIAN_POINT('',(0.,0.,0.));
#432=CARTESIAN_POINT('',(-60.,12.5,5.));
#433=CARTESIAN_POINT('',(-60.,10.5,5.));
#434=CARTESIAN_POINT('',(-60.,-10.5,5.));
#435=CARTESIAN_POINT('',(-60.,10.5,5.));
#436=CARTESIAN_POINT('',(-60.,10.5,0.));
#437=CARTESIAN_POINT('',(-60.,12.5,0.));
#438=CARTESIAN_POINT('',(-60.,-10.5,0.));
#439=CARTESIAN_POINT('',(-60.,-10.5,5.));
#440=CARTESIAN_POINT('',(-60.,12.5,5.));
#441=CARTESIAN_POINT('',(-60.,-12.5,5.));
#442=CARTESIAN_POINT('',(-58.,-12.5,5.));
#443=CARTESIAN_POINT('',(58.,-12.5,5.));
#444=CARTESIAN_POINT('',(-58.,-12.5,5.));
#445=CARTESIAN_POINT('',(-58.,-12.5,0.));
#446=CARTESIAN_POINT('',(-60.,-12.5,0.));
#447=CARTESIAN_POINT('',(58.,-12.5,0.));
#448=CARTESIAN_POINT('',(58.,-12.5,5.));
#449=CARTESIAN_POINT('',(-60.,-12.5,5.));
#450=CARTESIAN_POINT('',(60.,-12.5,0.));
#451=CARTESIAN_POINT('',(60.,-10.5,0.));
#452=CARTESIAN_POINT('',(60.,10.5,0.));
#453=CARTESIAN_POINT('',(60.,10.5,5.));
#454=CARTESIAN_POINT('',(60.,10.5,5.));
#455=CARTESIAN_POINT('',(60.,-12.5,5.));
#456=CARTESIAN_POINT('',(60.,-10.5,5.));
#457=CARTESIAN_POINT('',(60.,-10.5,5.));
#458=CARTESIAN_POINT('',(60.,-12.5,5.));
#459=CARTESIAN_POINT('',(0.,0.,5.));
#460=CARTESIAN_POINT('',(5.5,0.,5.));
#461=CARTESIAN_POINT('',(0.,0.,0.));
#462=CARTESIAN_POINT('',(5.5,0.,0.));
#463=CARTESIAN_POINT('',(0.,0.,5.));
#464=CARTESIAN_POINT('',(-47.5,0.,5.));
#465=CARTESIAN_POINT('',(-42.,0.,5.));
#466=CARTESIAN_POINT('',(-47.5,0.,0.));
#467=CARTESIAN_POINT('',(-42.,0.,0.));
#468=CARTESIAN_POINT('',(-47.5,0.,5.));
#469=CARTESIAN_POINT('',(60.,12.5,5.));
#470=CARTESIAN_POINT('',(58.,12.5,5.));
#471=CARTESIAN_POINT('',(-58.,12.5,5.));
#472=CARTESIAN_POINT('',(58.,12.5,5.));
#473=CARTESIAN_POINT('',(58.,12.5,0.));
#474=CARTESIAN_POINT('',(60.,12.5,0.));
#475=CARTESIAN_POINT('',(-58.,12.5,0.));
#476=CARTESIAN_POINT('',(-58.,12.5,5.));
#477=CARTESIAN_POINT('',(60.,12.5,5.));
#478=CARTESIAN_POINT('',(47.5,5.75583995599256E-15,5.));
#479=CARTESIAN_POINT('',(53.,5.75583995599256E-15,5.));
#480=CARTESIAN_POINT('',(47.5,5.75583995599256E-15,0.));
#481=CARTESIAN_POINT('',(53.,5.75583995599256E-15,0.));
#482=CARTESIAN_POINT('',(47.5,5.75583995599256E-15,5.));
#483=CARTESIAN_POINT('',(58.,10.5,5.));
#484=CARTESIAN_POINT('',(-58.,10.5,5.));
#485=CARTESIAN_POINT('',(-58.,-10.5,5.));
#486=CARTESIAN_POINT('',(58.,-10.5,5.));
#487=CARTESIAN_POINT('',(-47.5,0.,5.));
#488=CARTESIAN_POINT('',(58.,10.5,0.));
#489=CARTESIAN_POINT('',(58.,-10.5,0.));
#490=CARTESIAN_POINT('',(-58.,-10.5,0.));
#491=CARTESIAN_POINT('',(-58.,10.5,0.));
#492=CARTESIAN_POINT('',(-47.5,0.,0.));
#493=CARTESIAN_POINT('',(58.,10.5,5.));
#494=CARTESIAN_POINT('',(-58.,10.5,5.));
#495=CARTESIAN_POINT('',(-58.,-10.5,5.));
#496=CARTESIAN_POINT('',(58.,-10.5,5.));
#497=(
GEOMETRIC_REPRESENTATION_CONTEXT(3)
GLOBAL_UNCERTAINTY_ASSIGNED_CONTEXT((#498))
GLOBAL_UNIT_ASSIGNED_CONTEXT((#504,#500,#499))
REPRESENTATION_CONTEXT('11BA1721_Catalog','TOP_LEVEL_ASSEMBLY_PART')
);
#498=UNCERTAINTY_MEASURE_WITH_UNIT(LENGTH_MEASURE(2.E-5),#504,
'DISTANCE_ACCURACY_VALUE','Maximum Tolerance applied to model');
#499=(
NAMED_UNIT(*)
SI_UNIT($,.STERADIAN.)
SOLID_ANGLE_UNIT()
);
#500=(
CONVERSION_BASED_UNIT('DEGREE',#502)
NAMED_UNIT(#501)
PLANE_ANGLE_UNIT()
);
#501=DIMENSIONAL_EXPONENTS(0.,0.,0.,0.,0.,0.,0.);
#502=PLANE_ANGLE_MEASURE_WITH_UNIT(PLANE_ANGLE_MEASURE(0.0174532925),#503);
#503=(
NAMED_UNIT(*)
PLANE_ANGLE_UNIT()
SI_UNIT($,.RADIAN.)
);
#504=(
LENGTH_UNIT()
NAMED_UNIT(*)
SI_UNIT(.MILLI.,.METRE.)
);
ENDSEC;
END-ISO-10303-21;
