ISO-10303-21;
HEADER;
/* Generated by software containing ST-Developer
 * from STEP Tools, Inc. (www.steptools.com) 
 */
/* OPTION: using custom schema-name function */

FILE_DESCRIPTION(
/* description */ (''),
/* implementation_level */ '2;1');

FILE_NAME(
/* name */ 'BA135.stp',
/* time_stamp */ '2019-06-25T07:27:40+02:00',
/* author */ (''),
/* organization */ (''),
/* preprocessor_version */ 'ST-DEVELOPER v16',
/* originating_system */ 'SIEMENS PLM Software NX 10.0',
/* authorisation */ '');

FILE_SCHEMA (('CONFIG_CONTROL_DESIGN'));
ENDSEC;

DATA;
#10=CONSTRUCTIVE_GEOMETRY_REPRESENTATION_RELATIONSHIP(
'supplemental geometry','',#94,#11);
#11=CONSTRUCTIVE_GEOMETRY_REPRESENTATION('supplemental geometry',(#450),
#695);
#12=SHAPE_REPRESENTATION_RELATIONSHIP('None',
'relationship between BA135-None and BA135-None',#94,#13);
#13=ADVANCED_BREP_SHAPE_REPRESENTATION('BA135-None',(#95),#695);
#14=CC_DESIGN_APPROVAL(#26,(#84));
#15=CC_DESIGN_APPROVAL(#27,(#86));
#16=CC_DESIGN_APPROVAL(#28,(#33));
#17=APPROVAL_PERSON_ORGANIZATION(#71,#26,#20);
#18=APPROVAL_PERSON_ORGANIZATION(#72,#27,#21);
#19=APPROVAL_PERSON_ORGANIZATION(#73,#28,#22);
#20=APPROVAL_ROLE('approver');
#21=APPROVAL_ROLE('approver');
#22=APPROVAL_ROLE('approver');
#23=APPROVAL_DATE_TIME(#41,#26);
#24=APPROVAL_DATE_TIME(#42,#27);
#25=APPROVAL_DATE_TIME(#43,#28);
#26=APPROVAL(#29,' ');
#27=APPROVAL(#30,' ');
#28=APPROVAL(#31,' ');
#29=APPROVAL_STATUS('not_yet_approved');
#30=APPROVAL_STATUS('not_yet_approved');
#31=APPROVAL_STATUS('not_yet_approved');
#32=CC_DESIGN_SECURITY_CLASSIFICATION(#33,(#86));
#33=SECURITY_CLASSIFICATION(' ',' ',#34);
#34=SECURITY_CLASSIFICATION_LEVEL('confidential');
#35=CC_DESIGN_DATE_AND_TIME_ASSIGNMENT(#39,#37,(#84));
#36=CC_DESIGN_DATE_AND_TIME_ASSIGNMENT(#40,#38,(#33));
#37=DATE_TIME_ROLE('creation_date');
#38=DATE_TIME_ROLE('classification_date');
#39=DATE_AND_TIME(#54,#44);
#40=DATE_AND_TIME(#55,#45);
#41=DATE_AND_TIME(#56,#46);
#42=DATE_AND_TIME(#57,#47);
#43=DATE_AND_TIME(#58,#48);
#44=LOCAL_TIME(0,0,0.,#49);
#45=LOCAL_TIME(0,0,0.,#50);
#46=LOCAL_TIME(0,0,0.,#51);
#47=LOCAL_TIME(0,0,0.,#52);
#48=LOCAL_TIME(0,0,0.,#53);
#49=COORDINATED_UNIVERSAL_TIME_OFFSET(0,0,.BEHIND.);
#50=COORDINATED_UNIVERSAL_TIME_OFFSET(0,0,.BEHIND.);
#51=COORDINATED_UNIVERSAL_TIME_OFFSET(0,0,.BEHIND.);
#52=COORDINATED_UNIVERSAL_TIME_OFFSET(0,0,.BEHIND.);
#53=COORDINATED_UNIVERSAL_TIME_OFFSET(0,0,.BEHIND.);
#54=CALENDAR_DATE(0,1,1);
#55=CALENDAR_DATE(0,1,1);
#56=CALENDAR_DATE(0,1,1);
#57=CALENDAR_DATE(0,1,1);
#58=CALENDAR_DATE(0,1,1);
#59=CC_DESIGN_PERSON_AND_ORGANIZATION_ASSIGNMENT(#67,#63,(#84,#86));
#60=CC_DESIGN_PERSON_AND_ORGANIZATION_ASSIGNMENT(#68,#64,(#88));
#61=CC_DESIGN_PERSON_AND_ORGANIZATION_ASSIGNMENT(#69,#65,(#86));
#62=CC_DESIGN_PERSON_AND_ORGANIZATION_ASSIGNMENT(#70,#66,(#33));
#63=PERSON_AND_ORGANIZATION_ROLE('creator');
#64=PERSON_AND_ORGANIZATION_ROLE('design_owner');
#65=PERSON_AND_ORGANIZATION_ROLE('design_supplier');
#66=PERSON_AND_ORGANIZATION_ROLE('classification_officer');
#67=PERSON_AND_ORGANIZATION(#81,#74);
#68=PERSON_AND_ORGANIZATION(#81,#75);
#69=PERSON_AND_ORGANIZATION(#81,#76);
#70=PERSON_AND_ORGANIZATION(#81,#77);
#71=PERSON_AND_ORGANIZATION(#81,#78);
#72=PERSON_AND_ORGANIZATION(#81,#79);
#73=PERSON_AND_ORGANIZATION(#81,#80);
#74=ORGANIZATION(' ',' ',' ');
#75=ORGANIZATION(' ',' ',' ');
#76=ORGANIZATION(' ',' ',' ');
#77=ORGANIZATION(' ',' ',' ');
#78=ORGANIZATION(' ',' ',' ');
#79=ORGANIZATION(' ',' ',' ');
#80=ORGANIZATION(' ',' ',' ');
#81=PERSON(' ',' ',' ',(' '),$,$);
#82=SHAPE_DEFINITION_REPRESENTATION(#83,#94);
#83=PRODUCT_DEFINITION_SHAPE('','',#84);
#84=PRODUCT_DEFINITION(' ','',#86,#85);
#85=DESIGN_CONTEXT('',#93,'design');
#86=PRODUCT_DEFINITION_FORMATION_WITH_SPECIFIED_SOURCE(' ',' ',#88,
 .NOT_KNOWN.);
#87=PRODUCT_RELATED_PRODUCT_CATEGORY('detail','',(#88));
#88=PRODUCT('BA135','BA135',' ',(#91));
#89=PRODUCT_CATEGORY('part',' ');
#90=PRODUCT_CATEGORY(' ','');
#91=MECHANICAL_CONTEXT(' ',#93,'mechanical');
#92=APPLICATION_PROTOCOL_DEFINITION('international standard',
'config_control_design',2010,#93);
#93=APPLICATION_CONTEXT(
'configuration controlled 3D designs of mechanical parts and assemblie
s');
#94=SHAPE_REPRESENTATION('BA135-None',(#449),#695);
#95=MANIFOLD_SOLID_BREP('',#96);
#96=CLOSED_SHELL('',(#124,#125,#126,#127,#128,#129,#130,#131,#132,#133,
#134,#135,#136,#137,#138,#139,#140,#141,#142));
#97=FACE_BOUND('',#187,.T.);
#98=FACE_BOUND('',#188,.T.);
#99=FACE_BOUND('',#189,.T.);
#100=FACE_BOUND('',#190,.T.);
#101=FACE_BOUND('',#191,.T.);
#102=FACE_BOUND('',#192,.T.);
#103=CYLINDRICAL_SURFACE('',#458,1.85);
#104=CYLINDRICAL_SURFACE('',#462,1.);
#105=CYLINDRICAL_SURFACE('',#466,0.5);
#106=CYLINDRICAL_SURFACE('',#470,0.5);
#107=CYLINDRICAL_SURFACE('',#474,1.);
#108=CYLINDRICAL_SURFACE('',#478,1.85);
#109=CYLINDRICAL_SURFACE('',#481,2.6);
#110=CIRCLE('',#456,1.85);
#111=CIRCLE('',#457,1.85);
#112=CIRCLE('',#460,1.);
#113=CIRCLE('',#461,1.);
#114=CIRCLE('',#464,0.5);
#115=CIRCLE('',#465,0.5);
#116=CIRCLE('',#468,0.5);
#117=CIRCLE('',#469,0.5);
#118=CIRCLE('',#472,1.);
#119=CIRCLE('',#473,1.);
#120=CIRCLE('',#476,1.85);
#121=CIRCLE('',#477,1.85);
#122=CIRCLE('',#479,2.6);
#123=CIRCLE('',#480,2.6);
#124=ADVANCED_FACE('',(#155),#143,.F.);
#125=ADVANCED_FACE('',(#156),#144,.F.);
#126=ADVANCED_FACE('',(#157),#145,.F.);
#127=ADVANCED_FACE('',(#158),#146,.F.);
#128=ADVANCED_FACE('',(#159),#147,.F.);
#129=ADVANCED_FACE('',(#160),#103,.F.);
#130=ADVANCED_FACE('',(#161),#148,.F.);
#131=ADVANCED_FACE('',(#162),#104,.T.);
#132=ADVANCED_FACE('',(#163),#149,.F.);
#133=ADVANCED_FACE('',(#164),#105,.F.);
#134=ADVANCED_FACE('',(#165),#150,.F.);
#135=ADVANCED_FACE('',(#166),#106,.F.);
#136=ADVANCED_FACE('',(#167),#151,.F.);
#137=ADVANCED_FACE('',(#168),#107,.T.);
#138=ADVANCED_FACE('',(#169),#152,.F.);
#139=ADVANCED_FACE('',(#170),#108,.F.);
#140=ADVANCED_FACE('',(#97,#98),#109,.F.);
#141=ADVANCED_FACE('',(#99,#100),#153,.F.);
#142=ADVANCED_FACE('',(#101,#102),#154,.T.);
#143=PLANE('',#451);
#144=PLANE('',#452);
#145=PLANE('',#453);
#146=PLANE('',#454);
#147=PLANE('',#455);
#148=PLANE('',#459);
#149=PLANE('',#463);
#150=PLANE('',#467);
#151=PLANE('',#471);
#152=PLANE('',#475);
#153=PLANE('',#482);
#154=PLANE('',#483);
#155=FACE_OUTER_BOUND('',#171,.T.);
#156=FACE_OUTER_BOUND('',#172,.T.);
#157=FACE_OUTER_BOUND('',#173,.T.);
#158=FACE_OUTER_BOUND('',#174,.T.);
#159=FACE_OUTER_BOUND('',#175,.T.);
#160=FACE_OUTER_BOUND('',#176,.T.);
#161=FACE_OUTER_BOUND('',#177,.T.);
#162=FACE_OUTER_BOUND('',#178,.T.);
#163=FACE_OUTER_BOUND('',#179,.T.);
#164=FACE_OUTER_BOUND('',#180,.T.);
#165=FACE_OUTER_BOUND('',#181,.T.);
#166=FACE_OUTER_BOUND('',#182,.T.);
#167=FACE_OUTER_BOUND('',#183,.T.);
#168=FACE_OUTER_BOUND('',#184,.T.);
#169=FACE_OUTER_BOUND('',#185,.T.);
#170=FACE_OUTER_BOUND('',#186,.T.);
#171=EDGE_LOOP('',(#193,#194,#195,#196));
#172=EDGE_LOOP('',(#197,#198,#199,#200));
#173=EDGE_LOOP('',(#201,#202,#203,#204));
#174=EDGE_LOOP('',(#205,#206,#207,#208));
#175=EDGE_LOOP('',(#209,#210,#211,#212));
#176=EDGE_LOOP('',(#213,#214,#215,#216));
#177=EDGE_LOOP('',(#217,#218,#219,#220));
#178=EDGE_LOOP('',(#221,#222,#223,#224));
#179=EDGE_LOOP('',(#225,#226,#227,#228));
#180=EDGE_LOOP('',(#229,#230,#231,#232));
#181=EDGE_LOOP('',(#233,#234,#235,#236));
#182=EDGE_LOOP('',(#237,#238,#239,#240));
#183=EDGE_LOOP('',(#241,#242,#243,#244));
#184=EDGE_LOOP('',(#245,#246,#247,#248));
#185=EDGE_LOOP('',(#249,#250,#251,#252));
#186=EDGE_LOOP('',(#253,#254,#255,#256));
#187=EDGE_LOOP('',(#257));
#188=EDGE_LOOP('',(#258));
#189=EDGE_LOOP('',(#259,#260,#261,#262,#263,#264,#265,#266,#267,#268,#269,
#270,#271,#272,#273,#274));
#190=EDGE_LOOP('',(#275));
#191=EDGE_LOOP('',(#276,#277,#278,#279,#280,#281,#282,#283,#284,#285,#286,
#287,#288,#289,#290,#291));
#192=EDGE_LOOP('',(#292));
#193=ORIENTED_EDGE('',*,*,#327,.T.);
#194=ORIENTED_EDGE('',*,*,#328,.F.);
#195=ORIENTED_EDGE('',*,*,#329,.F.);
#196=ORIENTED_EDGE('',*,*,#330,.T.);
#197=ORIENTED_EDGE('',*,*,#331,.T.);
#198=ORIENTED_EDGE('',*,*,#332,.F.);
#199=ORIENTED_EDGE('',*,*,#333,.F.);
#200=ORIENTED_EDGE('',*,*,#328,.T.);
#201=ORIENTED_EDGE('',*,*,#334,.T.);
#202=ORIENTED_EDGE('',*,*,#335,.F.);
#203=ORIENTED_EDGE('',*,*,#336,.F.);
#204=ORIENTED_EDGE('',*,*,#332,.T.);
#205=ORIENTED_EDGE('',*,*,#337,.T.);
#206=ORIENTED_EDGE('',*,*,#338,.F.);
#207=ORIENTED_EDGE('',*,*,#339,.F.);
#208=ORIENTED_EDGE('',*,*,#335,.T.);
#209=ORIENTED_EDGE('',*,*,#340,.T.);
#210=ORIENTED_EDGE('',*,*,#341,.F.);
#211=ORIENTED_EDGE('',*,*,#342,.F.);
#212=ORIENTED_EDGE('',*,*,#338,.T.);
#213=ORIENTED_EDGE('',*,*,#343,.T.);
#214=ORIENTED_EDGE('',*,*,#344,.F.);
#215=ORIENTED_EDGE('',*,*,#345,.F.);
#216=ORIENTED_EDGE('',*,*,#341,.T.);
#217=ORIENTED_EDGE('',*,*,#346,.T.);
#218=ORIENTED_EDGE('',*,*,#347,.F.);
#219=ORIENTED_EDGE('',*,*,#348,.F.);
#220=ORIENTED_EDGE('',*,*,#344,.T.);
#221=ORIENTED_EDGE('',*,*,#349,.T.);
#222=ORIENTED_EDGE('',*,*,#350,.F.);
#223=ORIENTED_EDGE('',*,*,#351,.F.);
#224=ORIENTED_EDGE('',*,*,#347,.T.);
#225=ORIENTED_EDGE('',*,*,#352,.T.);
#226=ORIENTED_EDGE('',*,*,#353,.F.);
#227=ORIENTED_EDGE('',*,*,#354,.F.);
#228=ORIENTED_EDGE('',*,*,#350,.T.);
#229=ORIENTED_EDGE('',*,*,#355,.T.);
#230=ORIENTED_EDGE('',*,*,#356,.F.);
#231=ORIENTED_EDGE('',*,*,#357,.F.);
#232=ORIENTED_EDGE('',*,*,#353,.T.);
#233=ORIENTED_EDGE('',*,*,#358,.T.);
#234=ORIENTED_EDGE('',*,*,#359,.F.);
#235=ORIENTED_EDGE('',*,*,#360,.F.);
#236=ORIENTED_EDGE('',*,*,#356,.T.);
#237=ORIENTED_EDGE('',*,*,#361,.T.);
#238=ORIENTED_EDGE('',*,*,#362,.F.);
#239=ORIENTED_EDGE('',*,*,#363,.F.);
#240=ORIENTED_EDGE('',*,*,#359,.T.);
#241=ORIENTED_EDGE('',*,*,#364,.T.);
#242=ORIENTED_EDGE('',*,*,#365,.F.);
#243=ORIENTED_EDGE('',*,*,#366,.F.);
#244=ORIENTED_EDGE('',*,*,#362,.T.);
#245=ORIENTED_EDGE('',*,*,#367,.T.);
#246=ORIENTED_EDGE('',*,*,#368,.F.);
#247=ORIENTED_EDGE('',*,*,#369,.F.);
#248=ORIENTED_EDGE('',*,*,#365,.T.);
#249=ORIENTED_EDGE('',*,*,#370,.T.);
#250=ORIENTED_EDGE('',*,*,#371,.F.);
#251=ORIENTED_EDGE('',*,*,#372,.F.);
#252=ORIENTED_EDGE('',*,*,#368,.T.);
#253=ORIENTED_EDGE('',*,*,#373,.T.);
#254=ORIENTED_EDGE('',*,*,#330,.F.);
#255=ORIENTED_EDGE('',*,*,#374,.F.);
#256=ORIENTED_EDGE('',*,*,#371,.T.);
#257=ORIENTED_EDGE('',*,*,#375,.T.);
#258=ORIENTED_EDGE('',*,*,#376,.F.);
#259=ORIENTED_EDGE('',*,*,#329,.T.);
#260=ORIENTED_EDGE('',*,*,#333,.T.);
#261=ORIENTED_EDGE('',*,*,#336,.T.);
#262=ORIENTED_EDGE('',*,*,#339,.T.);
#263=ORIENTED_EDGE('',*,*,#342,.T.);
#264=ORIENTED_EDGE('',*,*,#345,.T.);
#265=ORIENTED_EDGE('',*,*,#348,.T.);
#266=ORIENTED_EDGE('',*,*,#351,.T.);
#267=ORIENTED_EDGE('',*,*,#354,.T.);
#268=ORIENTED_EDGE('',*,*,#357,.T.);
#269=ORIENTED_EDGE('',*,*,#360,.T.);
#270=ORIENTED_EDGE('',*,*,#363,.T.);
#271=ORIENTED_EDGE('',*,*,#366,.T.);
#272=ORIENTED_EDGE('',*,*,#369,.T.);
#273=ORIENTED_EDGE('',*,*,#372,.T.);
#274=ORIENTED_EDGE('',*,*,#374,.T.);
#275=ORIENTED_EDGE('',*,*,#375,.F.);
#276=ORIENTED_EDGE('',*,*,#327,.F.);
#277=ORIENTED_EDGE('',*,*,#373,.F.);
#278=ORIENTED_EDGE('',*,*,#370,.F.);
#279=ORIENTED_EDGE('',*,*,#367,.F.);
#280=ORIENTED_EDGE('',*,*,#364,.F.);
#281=ORIENTED_EDGE('',*,*,#361,.F.);
#282=ORIENTED_EDGE('',*,*,#358,.F.);
#283=ORIENTED_EDGE('',*,*,#355,.F.);
#284=ORIENTED_EDGE('',*,*,#352,.F.);
#285=ORIENTED_EDGE('',*,*,#349,.F.);
#286=ORIENTED_EDGE('',*,*,#346,.F.);
#287=ORIENTED_EDGE('',*,*,#343,.F.);
#288=ORIENTED_EDGE('',*,*,#340,.F.);
#289=ORIENTED_EDGE('',*,*,#337,.F.);
#290=ORIENTED_EDGE('',*,*,#334,.F.);
#291=ORIENTED_EDGE('',*,*,#331,.F.);
#292=ORIENTED_EDGE('',*,*,#376,.T.);
#293=VERTEX_POINT('',#593);
#294=VERTEX_POINT('',#594);
#295=VERTEX_POINT('',#596);
#296=VERTEX_POINT('',#598);
#297=VERTEX_POINT('',#602);
#298=VERTEX_POINT('',#604);
#299=VERTEX_POINT('',#608);
#300=VERTEX_POINT('',#610);
#301=VERTEX_POINT('',#614);
#302=VERTEX_POINT('',#616);
#303=VERTEX_POINT('',#620);
#304=VERTEX_POINT('',#622);
#305=VERTEX_POINT('',#626);
#306=VERTEX_POINT('',#628);
#307=VERTEX_POINT('',#632);
#308=VERTEX_POINT('',#634);
#309=VERTEX_POINT('',#638);
#310=VERTEX_POINT('',#640);
#311=VERTEX_POINT('',#644);
#312=VERTEX_POINT('',#646);
#313=VERTEX_POINT('',#650);
#314=VERTEX_POINT('',#652);
#315=VERTEX_POINT('',#656);
#316=VERTEX_POINT('',#658);
#317=VERTEX_POINT('',#662);
#318=VERTEX_POINT('',#664);
#319=VERTEX_POINT('',#668);
#320=VERTEX_POINT('',#670);
#321=VERTEX_POINT('',#674);
#322=VERTEX_POINT('',#676);
#323=VERTEX_POINT('',#680);
#324=VERTEX_POINT('',#682);
#325=VERTEX_POINT('',#689);
#326=VERTEX_POINT('',#691);
#327=EDGE_CURVE('',#293,#294,#377,.T.);
#328=EDGE_CURVE('',#295,#294,#378,.T.);
#329=EDGE_CURVE('',#296,#295,#379,.T.);
#330=EDGE_CURVE('',#296,#293,#380,.T.);
#331=EDGE_CURVE('',#294,#297,#381,.T.);
#332=EDGE_CURVE('',#298,#297,#382,.T.);
#333=EDGE_CURVE('',#295,#298,#383,.T.);
#334=EDGE_CURVE('',#297,#299,#384,.T.);
#335=EDGE_CURVE('',#300,#299,#385,.T.);
#336=EDGE_CURVE('',#298,#300,#386,.T.);
#337=EDGE_CURVE('',#299,#301,#387,.T.);
#338=EDGE_CURVE('',#302,#301,#388,.T.);
#339=EDGE_CURVE('',#300,#302,#389,.T.);
#340=EDGE_CURVE('',#301,#303,#390,.T.);
#341=EDGE_CURVE('',#304,#303,#391,.T.);
#342=EDGE_CURVE('',#302,#304,#392,.T.);
#343=EDGE_CURVE('',#303,#305,#110,.T.);
#344=EDGE_CURVE('',#306,#305,#393,.T.);
#345=EDGE_CURVE('',#304,#306,#111,.T.);
#346=EDGE_CURVE('',#305,#307,#394,.T.);
#347=EDGE_CURVE('',#308,#307,#395,.T.);
#348=EDGE_CURVE('',#306,#308,#396,.T.);
#349=EDGE_CURVE('',#307,#309,#112,.T.);
#350=EDGE_CURVE('',#310,#309,#397,.T.);
#351=EDGE_CURVE('',#308,#310,#113,.T.);
#352=EDGE_CURVE('',#309,#311,#398,.T.);
#353=EDGE_CURVE('',#312,#311,#399,.T.);
#354=EDGE_CURVE('',#310,#312,#400,.T.);
#355=EDGE_CURVE('',#311,#313,#114,.T.);
#356=EDGE_CURVE('',#314,#313,#401,.T.);
#357=EDGE_CURVE('',#312,#314,#115,.T.);
#358=EDGE_CURVE('',#313,#315,#402,.T.);
#359=EDGE_CURVE('',#316,#315,#403,.T.);
#360=EDGE_CURVE('',#314,#316,#404,.T.);
#361=EDGE_CURVE('',#315,#317,#116,.T.);
#362=EDGE_CURVE('',#318,#317,#405,.T.);
#363=EDGE_CURVE('',#316,#318,#117,.T.);
#364=EDGE_CURVE('',#317,#319,#406,.T.);
#365=EDGE_CURVE('',#320,#319,#407,.T.);
#366=EDGE_CURVE('',#318,#320,#408,.T.);
#367=EDGE_CURVE('',#319,#321,#118,.T.);
#368=EDGE_CURVE('',#322,#321,#409,.T.);
#369=EDGE_CURVE('',#320,#322,#119,.T.);
#370=EDGE_CURVE('',#321,#323,#410,.T.);
#371=EDGE_CURVE('',#324,#323,#411,.T.);
#372=EDGE_CURVE('',#322,#324,#412,.T.);
#373=EDGE_CURVE('',#323,#293,#120,.T.);
#374=EDGE_CURVE('',#324,#296,#121,.T.);
#375=EDGE_CURVE('',#325,#325,#122,.T.);
#376=EDGE_CURVE('',#326,#326,#123,.T.);
#377=LINE('',#592,#413);
#378=LINE('',#595,#414);
#379=LINE('',#597,#415);
#380=LINE('',#599,#416);
#381=LINE('',#601,#417);
#382=LINE('',#603,#418);
#383=LINE('',#605,#419);
#384=LINE('',#607,#420);
#385=LINE('',#609,#421);
#386=LINE('',#611,#422);
#387=LINE('',#613,#423);
#388=LINE('',#615,#424);
#389=LINE('',#617,#425);
#390=LINE('',#619,#426);
#391=LINE('',#621,#427);
#392=LINE('',#623,#428);
#393=LINE('',#627,#429);
#394=LINE('',#631,#430);
#395=LINE('',#633,#431);
#396=LINE('',#635,#432);
#397=LINE('',#639,#433);
#398=LINE('',#643,#434);
#399=LINE('',#645,#435);
#400=LINE('',#647,#436);
#401=LINE('',#651,#437);
#402=LINE('',#655,#438);
#403=LINE('',#657,#439);
#404=LINE('',#659,#440);
#405=LINE('',#663,#441);
#406=LINE('',#667,#442);
#407=LINE('',#669,#443);
#408=LINE('',#671,#444);
#409=LINE('',#675,#445);
#410=LINE('',#679,#446);
#411=LINE('',#681,#447);
#412=LINE('',#683,#448);
#413=VECTOR('',#488,1.);
#414=VECTOR('',#489,1.);
#415=VECTOR('',#490,1.);
#416=VECTOR('',#491,1.);
#417=VECTOR('',#494,1.);
#418=VECTOR('',#495,1.);
#419=VECTOR('',#496,1.);
#420=VECTOR('',#499,1.);
#421=VECTOR('',#500,1.);
#422=VECTOR('',#501,1.);
#423=VECTOR('',#504,1.);
#424=VECTOR('',#505,1.);
#425=VECTOR('',#506,1.);
#426=VECTOR('',#509,1.);
#427=VECTOR('',#510,1.);
#428=VECTOR('',#511,1.);
#429=VECTOR('',#516,1.);
#430=VECTOR('',#521,1.);
#431=VECTOR('',#522,1.);
#432=VECTOR('',#523,1.);
#433=VECTOR('',#528,1.);
#434=VECTOR('',#533,1.);
#435=VECTOR('',#534,1.);
#436=VECTOR('',#535,1.);
#437=VECTOR('',#540,1.);
#438=VECTOR('',#545,1.);
#439=VECTOR('',#546,1.);
#440=VECTOR('',#547,1.);
#441=VECTOR('',#552,1.);
#442=VECTOR('',#557,1.);
#443=VECTOR('',#558,1.);
#444=VECTOR('',#559,1.);
#445=VECTOR('',#564,1.);
#446=VECTOR('',#569,1.);
#447=VECTOR('',#570,1.);
#448=VECTOR('',#571,1.);
#449=AXIS2_PLACEMENT_3D('',#590,#484,#485);
#450=AXIS2_PLACEMENT_3D('',#591,#486,#487);
#451=AXIS2_PLACEMENT_3D('',#600,#492,#493);
#452=AXIS2_PLACEMENT_3D('',#606,#497,#498);
#453=AXIS2_PLACEMENT_3D('',#612,#502,#503);
#454=AXIS2_PLACEMENT_3D('',#618,#507,#508);
#455=AXIS2_PLACEMENT_3D('',#624,#512,#513);
#456=AXIS2_PLACEMENT_3D('',#625,#514,#515);
#457=AXIS2_PLACEMENT_3D('',#629,#517,#518);
#458=AXIS2_PLACEMENT_3D('',#630,#519,#520);
#459=AXIS2_PLACEMENT_3D('',#636,#524,#525);
#460=AXIS2_PLACEMENT_3D('',#637,#526,#527);
#461=AXIS2_PLACEMENT_3D('',#641,#529,#530);
#462=AXIS2_PLACEMENT_3D('',#642,#531,#532);
#463=AXIS2_PLACEMENT_3D('',#648,#536,#537);
#464=AXIS2_PLACEMENT_3D('',#649,#538,#539);
#465=AXIS2_PLACEMENT_3D('',#653,#541,#542);
#466=AXIS2_PLACEMENT_3D('',#654,#543,#544);
#467=AXIS2_PLACEMENT_3D('',#660,#548,#549);
#468=AXIS2_PLACEMENT_3D('',#661,#550,#551);
#469=AXIS2_PLACEMENT_3D('',#665,#553,#554);
#470=AXIS2_PLACEMENT_3D('',#666,#555,#556);
#471=AXIS2_PLACEMENT_3D('',#672,#560,#561);
#472=AXIS2_PLACEMENT_3D('',#673,#562,#563);
#473=AXIS2_PLACEMENT_3D('',#677,#565,#566);
#474=AXIS2_PLACEMENT_3D('',#678,#567,#568);
#475=AXIS2_PLACEMENT_3D('',#684,#572,#573);
#476=AXIS2_PLACEMENT_3D('',#685,#574,#575);
#477=AXIS2_PLACEMENT_3D('',#686,#576,#577);
#478=AXIS2_PLACEMENT_3D('',#687,#578,#579);
#479=AXIS2_PLACEMENT_3D('',#688,#580,#581);
#480=AXIS2_PLACEMENT_3D('',#690,#582,#583);
#481=AXIS2_PLACEMENT_3D('',#692,#584,#585);
#482=AXIS2_PLACEMENT_3D('',#693,#586,#587);
#483=AXIS2_PLACEMENT_3D('',#694,#588,#589);
#484=DIRECTION('',(0.,0.,1.));
#485=DIRECTION('',(1.,0.,0.));
#486=DIRECTION('',(0.,0.,1.));
#487=DIRECTION('',(1.,0.,0.));
#488=DIRECTION('',(-1.68006460694291E-16,-1.,0.));
#489=DIRECTION('',(0.,0.,-1.));
#490=DIRECTION('',(-1.68006460694291E-16,-1.,0.));
#491=DIRECTION('',(0.,0.,-1.));
#492=DIRECTION('',(1.,-1.68006460694291E-16,0.));
#493=DIRECTION('',(1.6826817716975E-16,1.,0.));
#494=DIRECTION('',(0.707106781186547,-0.707106781186548,0.));
#495=DIRECTION('',(0.,0.,-1.));
#496=DIRECTION('',(0.707106781186547,-0.707106781186548,0.));
#497=DIRECTION('',(0.707106781186548,0.707106781186547,0.));
#498=DIRECTION('',(-0.707106781186547,0.707106781186548,0.));
#499=DIRECTION('',(1.,0.,0.));
#500=DIRECTION('',(0.,0.,-1.));
#501=DIRECTION('',(1.,0.,0.));
#502=DIRECTION('',(0.,1.,0.));
#503=DIRECTION('',(0.,0.,1.));
#504=DIRECTION('',(0.707106781186547,0.707106781186548,0.));
#505=DIRECTION('',(0.,0.,-1.));
#506=DIRECTION('',(0.707106781186547,0.707106781186548,0.));
#507=DIRECTION('',(-0.707106781186548,0.707106781186547,0.));
#508=DIRECTION('',(-0.707106781186547,-0.707106781186548,0.));
#509=DIRECTION('',(2.52009691041437E-16,1.,0.));
#510=DIRECTION('',(0.,0.,-1.));
#511=DIRECTION('',(2.52009691041437E-16,1.,0.));
#512=DIRECTION('',(-1.,2.52009691041437E-16,0.));
#513=DIRECTION('',(-2.52402265754625E-16,-1.,0.));
#514=DIRECTION('',(0.,0.,-1.));
#515=DIRECTION('',(1.,0.,0.));
#516=DIRECTION('',(0.,0.,-1.));
#517=DIRECTION('',(0.,0.,-1.));
#518=DIRECTION('',(1.,0.,0.));
#519=DIRECTION('',(0.,0.,-1.));
#520=DIRECTION('',(-1.,0.,0.));
#521=DIRECTION('',(-9.91270557701033E-16,1.,0.));
#522=DIRECTION('',(0.,0.,-1.));
#523=DIRECTION('',(-9.91270557701033E-16,1.,0.));
#524=DIRECTION('',(-1.,-9.91270557701033E-16,0.));
#525=DIRECTION('',(9.91394466520745E-16,-1.,0.));
#526=DIRECTION('',(0.,0.,1.));
#527=DIRECTION('',(1.,0.,0.));
#528=DIRECTION('',(0.,0.,-1.));
#529=DIRECTION('',(0.,0.,1.));
#530=DIRECTION('',(1.,0.,0.));
#531=DIRECTION('',(0.,0.,-1.));
#532=DIRECTION('',(-1.,0.,0.));
#533=DIRECTION('',(0.,-1.,0.));
#534=DIRECTION('',(0.,0.,-1.));
#535=DIRECTION('',(0.,-1.,0.));
#536=DIRECTION('',(1.,0.,0.));
#537=DIRECTION('',(0.,0.,-1.));
#538=DIRECTION('',(0.,0.,-1.));
#539=DIRECTION('',(1.,0.,0.));
#540=DIRECTION('',(0.,0.,-1.));
#541=DIRECTION('',(0.,0.,-1.));
#542=DIRECTION('',(1.,0.,0.));
#543=DIRECTION('',(0.,0.,-1.));
#544=DIRECTION('',(-1.,0.,0.));
#545=DIRECTION('',(-1.,1.08420217248551E-15,0.));
#546=DIRECTION('',(0.,0.,-1.));
#547=DIRECTION('',(-1.,1.08420217248551E-15,0.));
#548=DIRECTION('',(-1.08420217248551E-15,-1.,0.));
#549=DIRECTION('',(1.,-1.0842021724855E-15,0.));
#550=DIRECTION('',(0.,0.,-1.));
#551=DIRECTION('',(1.,0.,0.));
#552=DIRECTION('',(0.,0.,-1.));
#553=DIRECTION('',(0.,0.,-1.));
#554=DIRECTION('',(1.,0.,0.));
#555=DIRECTION('',(0.,0.,-1.));
#556=DIRECTION('',(-1.,0.,0.));
#557=DIRECTION('',(-5.05961013826569E-16,1.,0.));
#558=DIRECTION('',(0.,0.,-1.));
#559=DIRECTION('',(-5.05961013826569E-16,1.,0.));
#560=DIRECTION('',(-1.,-5.05961013826569E-16,0.));
#561=DIRECTION('',(5.05888733681736E-16,-1.,0.));
#562=DIRECTION('',(0.,0.,1.));
#563=DIRECTION('',(1.,0.,0.));
#564=DIRECTION('',(0.,0.,-1.));
#565=DIRECTION('',(0.,0.,1.));
#566=DIRECTION('',(1.,0.,0.));
#567=DIRECTION('',(0.,0.,-1.));
#568=DIRECTION('',(-1.,0.,0.));
#569=DIRECTION('',(-2.47817639425258E-16,-1.,0.));
#570=DIRECTION('',(0.,0.,-1.));
#571=DIRECTION('',(-2.47817639425258E-16,-1.,0.));
#572=DIRECTION('',(1.,-2.47817639425258E-16,0.));
#573=DIRECTION('',(2.47631776195689E-16,1.,0.));
#574=DIRECTION('',(0.,0.,-1.));
#575=DIRECTION('',(1.,0.,0.));
#576=DIRECTION('',(0.,0.,-1.));
#577=DIRECTION('',(1.,0.,0.));
#578=DIRECTION('',(0.,0.,-1.));
#579=DIRECTION('',(-1.,0.,0.));
#580=DIRECTION('',(0.,0.,1.));
#581=DIRECTION('',(1.,0.,0.));
#582=DIRECTION('',(0.,0.,1.));
#583=DIRECTION('',(1.,0.,0.));
#584=DIRECTION('',(0.,0.,-1.));
#585=DIRECTION('',(-1.,0.,0.));
#586=DIRECTION('',(0.,0.,-1.));
#587=DIRECTION('',(-1.,0.,0.));
#588=DIRECTION('',(0.,0.,-1.));
#589=DIRECTION('',(-1.,0.,0.));
#590=CARTESIAN_POINT('',(0.,0.,0.));
#591=CARTESIAN_POINT('',(0.,0.,0.));
#592=CARTESIAN_POINT('',(-5.1,19.6506757991093,0.));
#593=CARTESIAN_POINT('',(-5.1,19.6506757991093,0.));
#594=CARTESIAN_POINT('',(-5.1,-1.,0.));
#595=CARTESIAN_POINT('',(-5.1,-1.,1.));
#596=CARTESIAN_POINT('',(-5.1,-1.,1.));
#597=CARTESIAN_POINT('',(-5.1,19.6506757991093,1.));
#598=CARTESIAN_POINT('',(-5.1,19.6506757991093,1.));
#599=CARTESIAN_POINT('',(-5.1,19.6506757991093,1.));
#600=CARTESIAN_POINT('',(-5.1,19.6506757991093,1.));
#601=CARTESIAN_POINT('',(-5.1,-1.,0.));
#602=CARTESIAN_POINT('',(-2.1,-4.,0.));
#603=CARTESIAN_POINT('',(-2.1,-4.,1.));
#604=CARTESIAN_POINT('',(-2.1,-4.,1.));
#605=CARTESIAN_POINT('',(-5.1,-1.,1.));
#606=CARTESIAN_POINT('',(-5.1,-1.,1.));
#607=CARTESIAN_POINT('',(-2.1,-4.,0.));
#608=CARTESIAN_POINT('',(2.1,-4.,0.));
#609=CARTESIAN_POINT('',(2.1,-4.,1.));
#610=CARTESIAN_POINT('',(2.1,-4.,1.));
#611=CARTESIAN_POINT('',(-2.1,-4.,1.));
#612=CARTESIAN_POINT('',(-2.1,-4.,1.));
#613=CARTESIAN_POINT('',(2.1,-4.,0.));
#614=CARTESIAN_POINT('',(5.1,-1.,0.));
#615=CARTESIAN_POINT('',(5.1,-1.,1.));
#616=CARTESIAN_POINT('',(5.1,-1.,1.));
#617=CARTESIAN_POINT('',(2.1,-4.,1.));
#618=CARTESIAN_POINT('',(2.1,-4.,1.));
#619=CARTESIAN_POINT('',(5.1,-1.,0.));
#620=CARTESIAN_POINT('',(5.10000000000001,19.6506757991093,0.));
#621=CARTESIAN_POINT('',(5.10000000000001,19.6506757991093,1.));
#622=CARTESIAN_POINT('',(5.10000000000001,19.6506757991093,1.));
#623=CARTESIAN_POINT('',(5.1,-1.,1.));
#624=CARTESIAN_POINT('',(5.1,-1.,1.));
#625=CARTESIAN_POINT('',(5.14999999999999,21.5,0.));
#626=CARTESIAN_POINT('',(3.29999999999999,21.5,0.));
#627=CARTESIAN_POINT('',(3.29999999999999,21.5,1.));
#628=CARTESIAN_POINT('',(3.29999999999999,21.5,1.));
#629=CARTESIAN_POINT('',(5.14999999999999,21.5,1.));
#630=CARTESIAN_POINT('',(5.14999999999999,21.5,1.));
#631=CARTESIAN_POINT('',(3.29999999999999,21.5,0.));
#632=CARTESIAN_POINT('',(3.29999999999999,25.,0.));
#633=CARTESIAN_POINT('',(3.29999999999999,25.,1.));
#634=CARTESIAN_POINT('',(3.29999999999999,25.,1.));
#635=CARTESIAN_POINT('',(3.29999999999999,21.5,1.));
#636=CARTESIAN_POINT('',(3.29999999999999,21.5,1.));
#637=CARTESIAN_POINT('',(2.29999999999999,25.,0.));
#638=CARTESIAN_POINT('',(1.29999999999999,25.,0.));
#639=CARTESIAN_POINT('',(1.29999999999999,25.,1.));
#640=CARTESIAN_POINT('',(1.29999999999999,25.,1.));
#641=CARTESIAN_POINT('',(2.29999999999999,25.,1.));
#642=CARTESIAN_POINT('',(2.29999999999999,25.,1.));
#643=CARTESIAN_POINT('',(1.29999999999999,25.,0.));
#644=CARTESIAN_POINT('',(1.29999999999999,10.,0.));
#645=CARTESIAN_POINT('',(1.29999999999999,10.,1.));
#646=CARTESIAN_POINT('',(1.29999999999999,10.,1.));
#647=CARTESIAN_POINT('',(1.29999999999999,25.,1.));
#648=CARTESIAN_POINT('',(1.29999999999999,25.,1.));
#649=CARTESIAN_POINT('',(0.79999999999999,10.,0.));
#650=CARTESIAN_POINT('',(0.79999999999999,9.5,0.));
#651=CARTESIAN_POINT('',(0.79999999999999,9.5,1.));
#652=CARTESIAN_POINT('',(0.79999999999999,9.5,1.));
#653=CARTESIAN_POINT('',(0.79999999999999,10.,1.));
#654=CARTESIAN_POINT('',(0.79999999999999,10.,1.));
#655=CARTESIAN_POINT('',(0.79999999999999,9.5,0.));
#656=CARTESIAN_POINT('',(-0.800000000000002,9.5,0.));
#657=CARTESIAN_POINT('',(-0.800000000000002,9.5,1.));
#658=CARTESIAN_POINT('',(-0.800000000000002,9.5,1.));
#659=CARTESIAN_POINT('',(0.79999999999999,9.5,1.));
#660=CARTESIAN_POINT('',(0.79999999999999,9.5,1.));
#661=CARTESIAN_POINT('',(-0.800000000000003,10.,0.));
#662=CARTESIAN_POINT('',(-1.3,10.,0.));
#663=CARTESIAN_POINT('',(-1.3,10.,1.));
#664=CARTESIAN_POINT('',(-1.3,10.,1.));
#665=CARTESIAN_POINT('',(-0.800000000000003,10.,1.));
#666=CARTESIAN_POINT('',(-0.800000000000003,10.,1.));
#667=CARTESIAN_POINT('',(-1.3,10.,0.));
#668=CARTESIAN_POINT('',(-1.30000000000001,25.,0.));
#669=CARTESIAN_POINT('',(-1.30000000000001,25.,1.));
#670=CARTESIAN_POINT('',(-1.30000000000001,25.,1.));
#671=CARTESIAN_POINT('',(-1.3,10.,1.));
#672=CARTESIAN_POINT('',(-1.3,10.,1.));
#673=CARTESIAN_POINT('',(-2.30000000000001,25.,0.));
#674=CARTESIAN_POINT('',(-3.30000000000001,25.,0.));
#675=CARTESIAN_POINT('',(-3.30000000000001,25.,1.));
#676=CARTESIAN_POINT('',(-3.30000000000001,25.,1.));
#677=CARTESIAN_POINT('',(-2.30000000000001,25.,1.));
#678=CARTESIAN_POINT('',(-2.30000000000001,25.,1.));
#679=CARTESIAN_POINT('',(-3.30000000000001,25.,0.));
#680=CARTESIAN_POINT('',(-3.30000000000001,21.5,0.));
#681=CARTESIAN_POINT('',(-3.30000000000001,21.5,1.));
#682=CARTESIAN_POINT('',(-3.30000000000001,21.5,1.));
#683=CARTESIAN_POINT('',(-3.30000000000001,25.,1.));
#684=CARTESIAN_POINT('',(-3.30000000000001,25.,1.));
#685=CARTESIAN_POINT('',(-5.15000000000001,21.5,0.));
#686=CARTESIAN_POINT('',(-5.15000000000001,21.5,1.));
#687=CARTESIAN_POINT('',(-5.15000000000001,21.5,1.));
#688=CARTESIAN_POINT('',(0.,0.,1.));
#689=CARTESIAN_POINT('',(2.6,0.,1.));
#690=CARTESIAN_POINT('',(0.,0.,0.));
#691=CARTESIAN_POINT('',(2.6,0.,0.));
#692=CARTESIAN_POINT('',(0.,0.,1.));
#693=CARTESIAN_POINT('',(5.14999999999999,21.5,1.));
#694=CARTESIAN_POINT('',(5.14999999999999,21.5,0.));
#695=(
GEOMETRIC_REPRESENTATION_CONTEXT(3)
GLOBAL_UNCERTAINTY_ASSIGNED_CONTEXT((#696))
GLOBAL_UNIT_ASSIGNED_CONTEXT((#702,#698,#697))
REPRESENTATION_CONTEXT('BA135','TOP_LEVEL_ASSEMBLY_PART')
);
#696=UNCERTAINTY_MEASURE_WITH_UNIT(LENGTH_MEASURE(2.E-5),#702,
'DISTANCE_ACCURACY_VALUE','Maximum Tolerance applied to model');
#697=(
NAMED_UNIT(*)
SI_UNIT($,.STERADIAN.)
SOLID_ANGLE_UNIT()
);
#698=(
CONVERSION_BASED_UNIT('DEGREE',#700)
NAMED_UNIT(#699)
PLANE_ANGLE_UNIT()
);
#699=DIMENSIONAL_EXPONENTS(0.,0.,0.,0.,0.,0.,0.);
#700=PLANE_ANGLE_MEASURE_WITH_UNIT(PLANE_ANGLE_MEASURE(0.0174532925),#701);
#701=(
NAMED_UNIT(*)
PLANE_ANGLE_UNIT()
SI_UNIT($,.RADIAN.)
);
#702=(
LENGTH_UNIT()
NAMED_UNIT(*)
SI_UNIT(.MILLI.,.METRE.)
);
ENDSEC;
END-ISO-10303-21;
